Guitar Tabs, Chords and Lyrics
Server problems seems to be fixed. Chordie has been experiencing problems with songs disappearing. These issues now seems to be fixed, but still verifying the fix. If you find anything strange, please email admin@chordie.com.


Atmosphere   Shinedown

 
 Tuning: Drop-D ( D-A-D-G-B-E )

 


 =================================================================================


 


 

 
 ---------------------------------------------------------------------------------
 ---------------------------------------------------------------------------------
 ---------------------------------------------------------------------------------

 


 


 =================================================================================


 INTRO


 =================================================================================


 0:00-


 


 Gtr.1


 

 
 E|------------------------------------------------------------|
 B|------------------------------------------------------------|
 G|--------------1b(1/4)----------------------1b(1/4)----------|
 D|-----1--3--1----------3--1--------1--3--1----------3--1-----|
 A|---1-----------------------3----1-----------------------3---|
 D|-3----------------------------3-----------------------------|
 E|------------------------------------------------------------|
 B|------------------------------------------------------------|
 G|--------------1b(1/4)----------------------1b(1/4)----------|
 D|-----1--3--1----------3--1--------1--3--1----------3--1-----|
 A|---1-----------------------3----1-----------------------3---|
 D|-3----------------------------3-----------------------------|

 


 


 Gtr.1


 

 
 E|------------------------------------------------------------|
 B|------------------------------------------------------------|
 G|--------------1b(1/4)----------------------1b(1/4)----------|
 D|-----1--3--1----------3--1--------1--3--1----------3--1-----|
 A|---1-----------------------3----1-----------------------3---|
 D|-3----------------------------3-----------------------------|

 


 Gtr.2


 

 
 E|------------------------------------------------------------|
 B|------------------------------------------------------------|
 G|--------------1b(1/4)----------------------1b(1/4)----------|
 D|-----1--3--1----------3--1--------1--3--1----------3--1-----|
 A|---1-----------------------3----1-----------------------3---|
 D|-3----------------------------3-----------------------------|

 


 


 Gtr.1


 

 
 E|------------------------------------------------------------|
 B|------------------------------------------------------------|
 G|--------------1b(1/4)----------------------1b(1/4)----------|
 D|-----1--3--1----------3--1--------1--3--1----------3--1-----|
 A|---1-----------------------3----1-----------------------3---|
 D|-3----------------------------3-----------------------------|

 


 Gtr.2


 

 
 E|------------------------------------------------------------|
 B|------------------------------------------------------------|
 G|--------------1b(1/4)----------------------1b(1/4)----------|
 D|-----1--3--1----------3--1--------1--3--1----------3--1-----|
 A|---1-----------------------3----1-----------------------3---|
 D|-3----------------------------3-----------------------------|

 


 


 =================================================================================


 VERSE 1


 =================================================================================


 


 Gtr.1


 

 
 E|---------------------------------------------------------------|
 B|---------------------------------------------------------------|
 G|-----------1--------------1--------------1--------------1------|
 D|-----1--3-----1-----1--3-----1-----1--3-----1-----1--3-----1---|
 A|---1--------------1--------------1--------------1--------------|
 D|-3--------------3--------------3--------------3----------------|

 


 Gtr.2


 

 
 E|---------------------------------------------------------------|
 B|---------------------------------------------------------------|
 G|-----------1--------------1--------------1--------------1------|
 D|-----1--3-----1-----1--3-----1-----1--3-----1-----1--3-----1---|
 A|---1--------------1--------------1--------------1--------------|
 D|-3--------------3--------------3--------------3----------------|

 


 


 Gtr.1


 

 
 E|---------------------------------------------------------------|
 B|---------------------------------------------------------------|
 G|-----------1--------------1--------------1--------------1------|
 D|-----1--3-----1-----1--3-----1-----1--3-----1-----1--3-----1---|
 A|---1--------------1--------------1--------------1--------------|
 D|-3--------------3--------------3--------------3----------------|

 


 Gtr.2


 

 
 E|---------------------------------------------------------------|
 B|---------------------------------------------------------------|
 G|-----------1--------------1--------------1--------------1------|
 D|-----1--3-----1-----1--3-----1-----1--3-----1-----1--3-----1---|
 A|---1--------------1--------------1--------------1--------------|
 D|-3--------------3--------------3--------------3----------------|

 


 


 =================================================================================


 SOLO 1


 =================================================================================


 


 Gtr.1


 

 
 E|---------------------------------------------------------------|
 B|---------------------------------------------------------------|
 G|--------------13-15-17-15-13--15-13----------------------------|
 D|---13b(1)---------------------------15p13-15~~~~~--------------|
 A|---------------------------------------------------------------|
 D|---------------------------------------------------------------|

 


 Gtr.2


 

 
 E|---------------------------------------------------------------|
 B|---------------------------------------------------------------|
 G|-------6---------------------6---------------------------------|
 D|---------------------------------------------------------------|
 A|-6--8------------------5--8------------------------------------|
 D|---------------------------------------------------------------|

 


 


 =================================================================================


 INTERLUDE


 =================================================================================


 


 Gtr.1


 

 
 E|------------------------------------------------------------|
 B|------------------------------------------------------------|
 G|--------------1b(1/4)----------------------1b(1/4)----------|
 D|-----1--3--1----------3--1--------1--3--1----------3--1-----|
 A|---1-----------------------3----1-----------------------3---|
 D|-3----------------------------3-----------------------------|

 


 Gtr.2


 

 
 E|------------------------------------------------------------|
 B|------------------------------------------------------------|
 G|--------------1b(1/4)----------------------1b(1/4)----------|
 D|-----1--3--1----------3--1--------1--3--1----------3--1-----|
 A|---1-----------------------3----1-----------------------3---|
 D|-3----------------------------3-----------------------------|

 


 


 =================================================================================


 PRE-CHORUS


 =================================================================================


 


 Gtr.1


 

 
 E|------------------------------------------------------------|
 B|------------------------------------------------------------|
 G|-------6---------------------6---------------------6--------|
 D|------------------------------------------------------------|
 A|-6--8------------------5--8------------------4--8-----------|
 D|------------------------------------------------------------|

 


 


 =================================================================================


 CHORUS


 =================================================================================


 


 Gtr.1


 

 
 E|-----------------------------------------------------------------------------|
 B|-----------------------------------------------------------------------------|
 G|-----------------------------------------------------------------------------|
 D|-1/3--3--3--3-6-3---1/3--3--3--3-3-3---1/3--3--3--3-6-3---1/3--3--3--3-3-3---|
 A|-1/3--3--3--3-6-3---1/3--3--3--3-3-3---1/3--3--3--3-6-3---1/3--3--3--3-3-3---|
 D|-1/3--3--3--3-6-3---1/3--3--3--3-3-3---1/3--3--3--3-6-3---1/3--3--3--3-3-3---|

 


 Gtr.2


 

 
 E|-----------------------------------------------------------------------------|
 B|-----------------------------------------------------------------------------|
 G|-----------------------------------------------------------------------------|
 D|-1/3--3--3--3-6-3---1/3--3--3--3-3-3---1/3--3--3--3-6-3---1/3--3--3--3-3-3---|
 A|-1/3--3--3--3-6-3---1/3--3--3--3-3-3---1/3--3--3--3-6-3---1/3--3--3--3-3-3---|
 D|-1/3--3--3--3-6-3---1/3--3--3--3-3-3---1/3--3--3--3-6-3---1/3--3--3--3-3-3---|

 


 


 Gtr.1


 

 
 E|-----------------------------------------------------------------------------|
 B|-----------------------------------------------------------------------------|
 G|-----------------------------------------------------------------------------|
 D|-1/3--3--3--3-6-3---1/3--3--3--3-3-3---1/3--3--3--3-6-3---1/3--3--3--3-3-3---|
 A|-1/3--3--3--3-6-3---1/3--3--3--3-3-3---1/3--3--3--3-6-3---1/3--3--3--3-3-3---|
 D|-1/3--3--3--3-6-3---1/3--3--3--3-3-3---1/3--3--3--3-6-3---1/3--3--3--3-3-3---|

 


 Gtr.2


 

 
 E|-----------------------------------------------------------------------------|
 B|-----------------------------------------------------------------------------|
 G|-----------------------------------------------------------------------------|
 D|-1/3--3--3--3-6-3---1/3--3--3--3-3-3---1/3--3--3--3-6-3---1/3--3--3--3-3-3---|
 A|-1/3--3--3--3-6-3---1/3--3--3--3-3-3---1/3--3--3--3-6-3---1/3--3--3--3-3-3---|
 D|-1/3--3--3--3-6-3---1/3--3--3--3-3-3---1/3--3--3--3-6-3---1/3--3--3--3-3-3---|

 


 


 =================================================================================


 INTERLUDE


 =================================================================================


 


 Gtr.1


 

 
 E|------------------------------------------------------------|
 B|------------------------------------------------------------|
 G|--------------1b(1/4)----------------------1b(1/4)----------|
 D|-----1--3--1----------3--1--------1--3--1----------3--1-----|
 A|---1-----------------------3----1-----------------------3---|
 D|-3----------------------------3-----------------------------|

 


 Gtr.2


 

 
 E|------------------------------------------------------------|
 B|------------------------------------------------------------|
 G|--------------1b(1/4)----------------------1b(1/4)----------|
 D|-----1--3--1----------3--1--------1--3--1----------3--1-----|
 A|---1-----------------------3----1-----------------------3---|
 D|-3----------------------------3-----------------------------|

 


 


 Gtr.1


 

 
 E|------------------------------------------------------------|
 B|------------------------------------------------------------|
 G|--------------1b(1/4)----------------------1b(1/4)----------|
 D|-----1--3--1----------3--1--------1--3--1----------3--1-----|
 A|---1-----------------------3----1-----------------------3---|
 D|-3----------------------------3-----------------------------|

 


 Gtr.2


 

 
 E|------------------------------------------------------------|
 B|------------------------------------------------------------|
 G|--------------1b(1/4)----------------------1b(1/4)----------|
 D|-----1--3--1----------3--1--------1--3--1----------3--1-----|
 A|---1-----------------------3----1-----------------------3---|
 D|-3----------------------------3-----------------------------|

 


 


 =================================================================================


 VERSE 2


 =================================================================================


 


 Gtr.1


 

 
 E|---------------------------------------------------------------|
 B|---------------------------------------------------------------|
 G|-----------1--------------1--------------1--------------1------|
 D|-----1--3-----1-----1--3-----1-----1--3-----1-----1--3-----1---|
 A|---1--------------1--------------1--------------1--------------|
 D|-3--------------3--------------3--------------3----------------|

 


 Gtr.2


 

 
 E|---------------------------------------------------------------|
 B|---------------------------------------------------------------|
 G|-----------1--------------1--------------1--------------1------|
 D|-----1--3-----1-----1--3-----1-----1--3-----1-----1--3-----1---|
 A|---1--------------1--------------1--------------1--------------|
 D|-3--------------3--------------3--------------3----------------|

 


 


 Gtr.1


 

 
 E|---------------------------------------------------------------|
 B|---------------------------------------------------------------|
 G|-----------1--------------1--------------1--------------1------|
 D|-----1--3-----1-----1--3-----1-----1--3-----1-----1--3-----1---|
 A|---1--------------1--------------1--------------1--------------|
 D|-3--------------3--------------3--------------3----------------|

 


 Gtr.2


 

 
 E|---------------------------------------------------------------|
 B|---------------------------------------------------------------|
 G|-----------1--------------1--------------1--------------1------|
 D|-----1--3-----1-----1--3-----1-----1--3-----1-----1--3-----1---|
 A|---1--------------1--------------1--------------1--------------|
 D|-3--------------3--------------3--------------3----------------|

 


 


 =================================================================================


 SOLO 2


 =================================================================================


 


 Gtr.1


 

 
 E|---------------------------------------------------------------|
 B|---------------------------------------------------------------|
 G|---------------------------------------------------------------|
 D|---8b(1)-----6-8-6-8-10-6--------------------------------------|
 A|--------------------------8-6----------------------------------|
 D|------------------------------10-8-6-6/8~~~~~------------------|

 


 Gtr.2


 

 
 E|---------------------------------------------------------------|
 B|---------------------------------------------------------------|
 G|-------6---------------------6---------------------------------|
 D|---------------------------------------------------------------|
 A|-6--8------------------5--8------------------------------------|
 D|---------------------------------------------------------------|

 


 


 =================================================================================


 INTERLUDE


 =================================================================================


 


 Gtr.1


 

 
 E|------------------------------------------------------------|
 B|------------------------------------------------------------|
 G|--------------1b(1/4)----------------------1b(1/4)----------|
 D|-----1--3--1----------3--1--------1--3--1----------3--1-----|
 A|---1-----------------------3----1-----------------------3---|
 D|-3----------------------------3-----------------------------|

 


 Gtr.2


 

 
 E|------------------------------------------------------------|
 B|------------------------------------------------------------|
 G|--------------1b(1/4)----------------------1b(1/4)----------|
 D|-----1--3--1----------3--1--------1--3--1----------3--1-----|
 A|---1-----------------------3----1-----------------------3---|
 D|-3----------------------------3-----------------------------|

 


 


 =================================================================================


 PRE-CHORUS


 =================================================================================


 


 Gtr.1


 

 
 E|------------------------------------------------------------|
 B|------------------------------------------------------------|
 G|-------6---------------------6---------------------6--------|
 D|------------------------------------------------------------|
 A|-6--8------------------5--8------------------4--8-----------|
 D|------------------------------------------------------------|

 


 


 =================================================================================


 CHORUS 2


 =================================================================================


 


 Gtr.1


 

 
 E|-----------------------------------------------------------------------------|
 B|-----------------------------------------------------------------------------|
 G|-----------------------------------------------------------------------------|
 D|-1/3--3--3--3-6-3---1/3--3--3--3-3-3---1/3--3--3--3-6-3---1/3--3--3--3-3-3---|
 A|-1/3--3--3--3-6-3---1/3--3--3--3-3-3---1/3--3--3--3-6-3---1/3--3--3--3-3-3---|
 D|-1/3--3--3--3-6-3---1/3--3--3--3-3-3---1/3--3--3--3-6-3---1/3--3--3--3-3-3---|

 


 Gtr.2


 

 
 E|-----------------------------------------------------------------------------|
 B|-----------------------------------------------------------------------------|
 G|-----------------------------------------------------------------------------|
 D|-1/3--3--3--3-6-3---1/3--3--3--3-3-3---1/3--3--3--3-6-3---1/3--3--3--3-3-3---|
 A|-1/3--3--3--3-6-3---1/3--3--3--3-3-3---1/3--3--3--3-6-3---1/3--3--3--3-3-3---|
 D|-1/3--3--3--3-6-3---1/3--3--3--3-3-3---1/3--3--3--3-6-3---1/3--3--3--3-3-3---|

 


 


 Gtr.1


 

 
 E|-----------------------------------------------------------------------------|
 B|-----------------------------------------------------------------------------|
 G|-----------------------------------------------------------------------------|
 D|-1/3--3--3--3-6-3---1/3--3--3--3-3-3---1/3--3--3--3-6-3---1/3--3--3--3-3-3---|
 A|-1/3--3--3--3-6-3---1/3--3--3--3-3-3---1/3--3--3--3-6-3---1/3--3--3--3-3-3---|
 D|-1/3--3--3--3-6-3---1/3--3--3--3-3-3---1/3--3--3--3-6-3---1/3--3--3--3-3-3---|

 


 Gtr.2


 

 
 E|-----------------------------------------------------------------------------|
 B|-----------------------------------------------------------------------------|
 G|-----------------------------------------------------------------------------|
 D|-1/3--3--3--3-6-3---1/3--3--3--3-3-3---1/3--3--3--3-6-3---1/3--3--3--3-3-3---|
 A|-1/3--3--3--3-6-3---1/3--3--3--3-3-3---1/3--3--3--3-6-3---1/3--3--3--3-3-3---|
 D|-1/3--3--3--3-6-3---1/3--3--3--3-3-3---1/3--3--3--3-6-3---1/3--3--3--3-3-3---|

 


 


 Gtr.1


 

 
 E|-----------------------------------------------------------------------------|
 B|-----------------------------------------------------------------------------|
 G|-----------------------------------------------------------------------------|
 D|-1/3--3--3--3-6-3---1/3--3--3--3-3-3---1/3--3--3--3-6-3---1/3--3--3--3-3-3---|
 A|-1/3--3--3--3-6-3---1/3--3--3--3-3-3---1/3--3--3--3-6-3---1/3--3--3--3-3-3---|
 D|-1/3--3--3--3-6-3---1/3--3--3--3-3-3---1/3--3--3--3-6-3---1/3--3--3--3-3-3---|

 


 Gtr.2


 

 
 E|-----------------------------------------------------------------------------|
 B|-----------------------------------------------------------------------------|
 G|-----------------------------------------------------------------------------|
 D|-1/3--3--3--3-6-3---1/3--3--3--3-3-3---1/3--3--3--3-6-3---1/3--3--3--3-3-3---|
 A|-1/3--3--3--3-6-3---1/3--3--3--3-3-3---1/3--3--3--3-6-3---1/3--3--3--3-3-3---|
 D|-1/3--3--3--3-6-3---1/3--3--3--3-3-3---1/3--3--3--3-6-3---1/3--3--3--3-3-3---|

 


 


 =================================================================================


 INTERLUDE


 =================================================================================


 


 Gtr.1


 

 
 E|-----------------------------------------------------------------------------|
 B|-----------------------------------------------------------------------------|
 G|-------6---------------------6---------------------6---------------------6---|
 D|-----------------------------------------------------------------------------|
 A|-6--8------------------5--8------------------4--8------------------5--8------|
 D|-----------------------------------------------------------------------------|

 


 


 Gtr.1


 

 
 E|-----------------------------------------------------------------------------|
 B|-----------------------------------------------------------------------------|
 G|-------6---------------------6---------------------6---------------------6---|
 D|-----------------------------------------------------------------------------|
 A|-6--8------------------5--8------------------4--8------------------5--8------|
 D|-----------------------------------------------------------------------------|

 


 


 =================================================================================


 SOLO 3


 =================================================================================


 


 Gtr.1


 

 
 E|-------------------------------------------------------------------------|
 B|-------------------------------------------------------------------------|
 G|---10b(1)-----10-8----8---8/10-10~~~~~---10---/13-13-13-10----10~~~~~~---|
 D|-------------------10--------------------------------------13------------|
 A|-------------------------------------------------------------------------|
 D|-------------------------------------------------------------------------|
 E|-------------------------------------------------------------------------|
 B|-------------------------------------------------------------------------|
 G|---13-10----10~~~~~~13-10----10--15-13-10----10-10~~~~~15b(1)r-13----13--|
 D|---------13---------------13--------------13----------------------15-----|
 A|-------------------------------------------------------------------------|
 D|-------------------------------------------------------------------------|
 E|-------------------------------------------------------------------------|
 B|-----------------------------------------------------18-21p18------------|
 G|---15b(1)r-13-15-13~~~---15b(1)r-13---------------------------20p17-15---|
 D|------------------------------------15-15-15~~~~~~~----------------------|
 A|-------------------------------------------------------------------------|
 D|-------------------------------------------------------------------------|
 E|-------------------------------------------------------------------------|
 B|-------------16----------------------------------------------------------|
 G|---17-15b(1)----17-------------------------------------------------------|
 D|-------------------20-18-20-18-17-18-17----------------------------------|
 A|----------------------------------------18-18/20~~~~~--------------------|
 D|-------------------------------------------------------8\\\\-1--3--6--8--|
 E|-------------------------------------------------------------------------|
 B|-------------------------------------------------------------------------|
 G|-------------------------------10-8--------------------------------------|
 D|------------------------6-8-10------10-8------8----------11b(1)----------|
 A|-----------------------------------------11-8---11-8---------------------|
 D|---10--12b(1/2)--15~~~---------------------------------------------------|
 E|-------------------------------------------------------------------------|
 B|--------------------------9-11-13-16-13-16-13----------------------------|
 G|-----------------------10---------15----15----15-15b(1)r-13-15----13-----|
 D|---6-8-6-6b(1)-------------------------------------------------15--------|
 A|---------------8~~~~~----------------------------------------------------|
 D|-------------------------------------------------------------------------|
 E|-------------------------------------------------------------------------|
 B|---------16b(1)--r---16b(1)--r---16b(1)r--16b(1)r--16b(1)r--16/18-18~~~~~|
 G|---15-13-----------------------------------------------------------------|
 D|-------------------------------------------------------------------------|
 A|-------------------------------------------------------------------------|
 D|-------------------------------------------------------------------------|
 E|-----------------------------------16-18-18b(1)~~~~~~~~~~~~~~~~~~~~~~~~~~|
 B|---16-18-16-20h21p20-16-18-16--18----------------------------------------|
 G|-------------------------------------------------------------------------|
 D|-------------------------------------------------------------------------|
 A|-------------------------------------------------------------------------|
 D|-------------------------------------------------------------------------|

 


 


 =================================================================================


 INTERLUDE


 =================================================================================


 


 Gtr.1


 

 
 E|------------------------------------------------------------|
 B|------------------------------------------------------------|
 G|-------6---------------------6---------------------6--------|
 D|------------------------------------------------------------|
 A|-6--8------------------5--8------------------4--8-----------|
 D|------------------------------------------------------------|

 


 


 =================================================================================


 CHORUS 3


 =================================================================================


 *CHORUS NOTE: The notes are all perfect, but I might not have put the two


 guitars together as perfect as can be, put you can do that;


 That's easy. But the notes are all perfect


 =================================================================================


 


 Gtr.1


 

 
 E|--------------------------------------------------/18-16--------|
 B|-----------------------------16-16-13-13-16-13-13--------18~~~~~|
 G|----------------------------------------------------------------|
 D|----------------------------------------------------------------|
 A|----------------------------------------------------------------|
 D|----------------------------------------------------------------|

 


 Gtr.2


 

 
 E|----------------------------------------------------------------|
 B|----------------------------------------------------------------|
 G|--------------1b(1/4)----------------------1b(1/4)--------------|
 D|-----1--3--1----------3--1--------1--3--1----------3--1---------|
 A|---1-----------------------3----1-----------------------3-------|
 D|-3----------------------------3---------------------------------|

 


 


 Gtr.1


 

 
 E|----------------------------------------------------------------|
 B|----------------------------------------------------------------|
 G|-----------------------------13b(1)-13--------------------------|
 D|---------------------------------------15-13-15-15~~~~~~~~------|
 A|----------------------------------------------------------------|
 D|----------------------------------------------------------------|

 


 Gtr.2


 

 
 E|----------------------------------------------------------------|
 B|----------------------------------------------------------------|
 G|--------------1b(1/4)----------------------1b(1/4)--------------|
 D|-----1--3--1----------3--1--------1--3--1----------3--1---------|
 A|---1-----------------------3----1-----------------------3-------|
 D|-3----------------------------3---------------------------------|

 


 


 Gtr.1


 

 
 E|----------------------------------------------------------------|
 B|----------------------------------------------------------------|
 G|-----------------------------------------------/5-3-------------|
 D|---------------------------------------------3------6-3-6-3~~~~~|
 A|-----------------------------------------3-6--------------------|
 D|-----------------------------3-3-6-1-3-6------------------------|

 


 Gtr.2


 

 
 E|----------------------------------------------------------------|
 B|----------------------------------------------------------------|
 G|--------------1b(1/4)----------------------1b(1/4)--------------|
 D|-----1--3--1----------3--1--------1--3--1----------3--1---------|
 A|---1-----------------------3----1-----------------------3-------|
 D|-3----------------------------3---------------------------------|

 


 


 Gtr.1


 

 
 E|-----------------------------------------------------------|
 B|-----------------------------------------------------------|
 G|--------------1b(1/4)----------------------1b(1/4)---------|
 D|-----1--3--1----------3--1--------1--3--1----------3--1----|
 A|---1-----------------------3----1--------------------------|
 D|-3----------------------------3----------------------------|

 


 Gtr.2


 

 
 E|-----------------------------------------------------------|
 B|-----------------------------------------------------------|
 G|--------------1b(1/4)----------------------1b(1/4)---------|
 D|-----1--3--1----------3--1--------1--3--1----------3--1----|
 A|---1-----------------------3----1--------------------------|
 D|-3----------------------------3----------------------------|

 


 


 *********************************************************************************


 Lyrics-


 *********************************************************************************


 


 VERSE 1: Once, I had a halo, but the it caught on fire.


 Once, I knew a good man, but he turned into a liar.


 Once, I saw a blind man, still looking for his eyes.


 Once, I met a bastard who watched his father die.


 


 PRE-CHORUS: And now, I'll tell ya how; I know them all


 


 CHORUS: I'm looking down at the atmosphere.


 I took my number and I waited in line.


 I'm not frail from the expoture, I'm taking pictures with my mind.


 I'm looking down at the atmosphere.


 I took my number and I waited in line.


 I'm not frail from the expoture, I'm taking pictures with my mind.


 


 VERSE 2: Once, I met a leader, born from genocide.


 Once, I knew a preacher, to his faith he said goodbye.


 Once, I met a good girl, who shows her face no more.


 It's hard to learn your lesson, when you become the whole world's whore


 


 PRE-CHORUS: And now, I'll tell ya how; I know them all


 


 CHORUS: I'm looking down at the atmosphere.


 I took my number and I waited in line.


 I'm not frail from the expoture, I'm taking pictures with my mind.


 I'm looking down at the atmosphere.


 I took my number and I waited in line.


 I'm not frail from the expoture, I'm taking pictures with my mind.


 


 


 PRE-CHORUS: And now, I'll tell ya how; I know them all


 


 CHORUS: I'm looking down at the atmosphere. I'm looking down at the atmosphere.


 I took my number and waited in line. I'm looking down at the atmosphere.


 


 *********************************************************************************


 Guitar Legend-


 *********************************************************************************


 


 

 
 h ------------Hammer-On
 p ------------Pull-Off
 b ------------Bend:

 


 


 + (1/4)-One-fourth bend + (1/2)-One-half bend +


 + (1)-Full bend + (2)-Double full bend, etc. +


 

 
 pb -----------Pre-Bend
 r ------------Bend Release ( if there is no number after r,

 


 release immediately )


 

 
 / ------------Slide Into
 \ ------------Slide Out Of
 s ------------Legato Slide
 S ------------Shift Slide
 - ------------Natural Harmonic
 [n] ----------Artifitial Harmonic
 n[n] ---------Tapped Harmonic
 ~ ------------Vibrato
 tr -----------Trill
 T ------------Tap
 TR -----------Trem. Picking
 PM -----------Palm Muting
 \n/ ----------Tremolo Bar Dip; n - Amount to Dip
 \n -----------Tremolo Bar Down
 n/ -----------Tremolo Bar Up
 /n\ ----------Tremolo Bar Inverted Dip
 = ------------Hold Bend; Also Acts As Connecting Devise 

 


 For Hammer-Ons/Pull-Offs


 

 
 < ------------Volume Swell Louder
 > ------------Volume Swell Softer
 x ------------Muted Slash
 o ------------Single Note Slash


Important: The song above is NOT stored on the Chordie server. The original song is hosted at www.azchords.com. Chordie works as a search engine and provides on-the-fly formatting. Chordie does not index songs against artists'/composers' will. To remove this song please click here.

This song is displayed as text-only. Transposing and tuning is only available for chordpro-songs.
Rate #1 of 1 versions

Jango Player

Login - add to songbook

SHARE PAGE  



You need to log in to post comments