Guitar Tabs, Chords and Lyrics
Server problems seems to be fixed. Chordie has been experiencing problems with songs disappearing. These issues now seems to be fixed, but still verifying the fix. If you find anything strange, please email admin@chordie.com.


Miracle  Shinedown

[Intro/ Verse 1] 
 
 e|---------------------------------------------------------------------------|
 B|--------2--------2---------------------------------------------------------|
 G|-----2--------2------------6-----6-----4-----0-----------------------------| (x5)
 D|--4--------0--------0-4/7-----7-----6-----6--------------------------------|
 A|---------------------------------------------------------------------------|
 E|---------------------------------------------------------------------------|
 e|---------------------------------------------------------------------------|
 B|-----------3---------------------------------------------------------------|
 G|--------4-----4-----4------------------------------------------------------|
 D|-----4-----------4---------------------------------------------------------|
 A|--2------------------------------------------------------------------------|
 E|---------------------------------------------------------------------------|

[Verse 2] 
 
 e|---------------------------------------------------------------------------|
 B|--------2--------2---------------------------------------------------------|
 G|-----2--------2------------6-----6-----4-----0-----------------------------| (x3)
 D|--4--------0--------0-4/7-----7-----6-----6--------------------------------|
 A|---------------------------------------------------------------------------|
 E|---------------------------------------------------------------------------|
 e|---------------------------------------------------------------------------|
 B|-----------3---------------------------------------------------------------|
 G|--------4-----4-----4------------------------------------------------------|
 D|-----4-----------4---------------------------------------------------------|
 A|--2------------------------------------------------------------------------|
 E|---------------------------------------------------------------------------|

[Cborus] 
[F#m]Take another look
[D]Take a look around
It's [A]you and me
It's [E]here and now
As you sp[F#m]arkle in the sky
I'll c[D]atch you while I can
Cause [A]all we are is [E]all I am
[D]I just want you to [E]see
[F#m]What I've always b[A]elieved
[D]You are
[E]The miracle in me
[Verse 3] 
 
 e|---------------------------------------------------------------------------|
 B|--------2--------2---------------------------------------------------------|
 G|-----2--------2------------6-----6-----4-----0-----------------------------| (x5)
 D|--4--------0--------0-4/7-----7-----6-----6--------------------------------|
 A|---------------------------------------------------------------------------|
 E|---------------------------------------------------------------------------|
 e|---------------------------------------------------------------------------|
 B|-----------3--------3--------3---------------------------------------------|
 G|--------4-----4--------4---------------------------------------------------|
 D|-----4-----------4--------4------------------------------------------------|
 A|--2------------------------------------------------------------------------|
 E|---------------------------------------------------------------------------|

[Cborus 2] 
[F#m]Take another look
[D]Take a look around
It's [A]you and me
It's [E]here and now
As you sp[F#m]arkle in the sky
I'll c[D]atch you while I can
Cause [A]all we are is [E]all I am
[D]I just want you to [E]see
[F#m]What I've always b[A]elieved
[D]You are
[E]The miracle in me
[Bridge] 
 
 e|---------------------------------------------------------------------------|
 B|---------------------------------------------------------------------------|
 G|------------sorry i haven't figured out the bridge yet---------------------|
 D|---------------------------------------------------------------------------|
 A|---------------------------------------------------------------------------|
 E|---------------------------------------------------------------------------|
 e|---------------------------------------------------------------------------|
 B|---------------------------------------------------------------------------|
 G|---------------------------------------------------------------------------|
 D|---------------------------------------------------------------------------|
 A|---------------------------------------------------------------------------|
 E|---------------------------------------------------------------------------|

[Cborus 3] 
[F#m]Take another look
[D]Take a look around
It's [A]you and me
It's [E]here and now
As you sp[F#m]arkle in the sky
I'll c[D]atch you while I can
Cause [A]all we are is [E]all I am
[D]I just want you to [E]see
[F#m]What I've always b[A]elieved
[D]You are
[E]The miracle in [F#m]me [D] [A] [E]
The miracle in [F#m]me[D] [A] [E]
You're the miracle in [F#m]me

Important: The song above is NOT stored on the Chordie server. The original song is hosted at www.azchords.com. Chordie works as a search engine and provides on-the-fly formatting. Chordie does not index songs against artists'/composers' will. To remove this song please click here.

Text color:
Chord color:
Chord grids: 
Font size:    
Page size: 

A D E F#m
Rate #1 of 5 versions

Jango Player

Login - add to songbook

SHARE PAGE  



You need to log in to post comments