Guitar Tabs, Chords and Lyrics
Server problems seems to be fixed. Chordie has been experiencing problems with songs disappearing. These issues now seems to be fixed, but still verifying the fix. If you find anything strange, please email admin@chordie.com.


Irgendwas bleibt  Silbermond

Usually you need for this song at least two guitars
This tab shows how you can play it with one guitar
Riff 1:
 
 |--------------------------------------------------------------------------------------|
 |------0--------0----------0--------0--------0--------------0-----------0--------0-----|
 |--------------------------------------------------------------------------------------|
 |---------2--------2----------2------2----------2--------2-----2-----------2--------2--|
 |-----------------------------------------------------0-----------0--------------------|
 |---0--------0----------2--------2--------4--------4-----------------0--------0--------|

Riff 2:
 
 |---------5-----4-------------------------------------5-----4--------------------------|
 |---5---------------------4---5--(4)--5---------5---------------------4---5------------|
 |--------------------------------------------------------------------------------------|
 |--------------------------------------------------------------------------------------|
 |--------------------------------------------------------------------------------------|
 |--------------------------------------------------------------------------------------|

Riff 3:
 
 |--------------------------------------------------------------------------------------|
 |------0--------0----------0--------0--------0--------0-----0----------0--------0------|
 |--------------------------------------------------------------------------------------|
 |---------2--------2----------2------2----------2--------2-----2----------2--------2---|
 |-------------------------------------------------------------------0------------------|
 |---0--------0----------4--------4--------0--------0-------------------------0---------|

Riff 4:
 
 |----------------------------------------|
 |---------0--------0-------0--------0----|
 |----------------------------------------|
 |------2--------2-------------2------2---|
 |----------------------------------------|
 |---0--------0----------0--------0-------|

Riff 5:
 
 |---------5-----4-------------------------------------5-----4--------------------------|
 |---5---------------------4---5--(4)--5---------5---------------------4---5--(4)---5---|
 |--------------------------------------------------------------------------------------|
 |--------------------------------------------------------------------------------------|
 |--------------------------------------------------------------------------------------|
 |--------------------------------------------------------------------------------------|
 |---------5-----4-------------------------------------5-----4--------------------------|
 |---5-------------------------------------------5--------------------------------------|
 |--------------------------------------------------------------------------------------|
 |--------------------------------------------------------------------------------------|
 |--------------------------------------------------------------------------------------|
 |--------------------------------------------------------------------------------------|

Intro:
[E] [B]  
Riff 1 x1
Riff 2 x1
Strophe 1:
[E]Sag mir dass dieser Ort hier s[B]icher ist
Und alles [E]Gute steht hier st[F#sus2]ill[F#m]
[A]Und dass das Wort dass du mir h[E]eute gibst
[C#m]Morgen noch g[A]enauso gilt[B]
Strophe 2:
[E]Diese Welt ist schnell und hat verlernt best[B]ändig zu sein
Denn V[E]ersuchungen setzen ihre F[F#sus2]rist[F#m]
Doc[A]h bitte schwör, dass wenn ich[E] wieder komm
Alles [C#m]noch beim Alten [B]ist
Refrain:
E Instead of chords you can play: Riff 4 x1
Gib mir ein kleines bisschen Sicherheit
In einer [C#m]Welt in der nichts sicher sch[A]eint
Gib mir in[E] dieser schnellen [Bsus4]Zeit[B]
irgendwas, das b[E]leibt
Riff 5 x1
[E]Gib mir einfach nur ein bisschen Halt[B]
Wieg mich [C#m]einfach nur in Sicherheit[A]
Hol mich [E]aus dieser schnellen [Bsus4]Zeit[B]
Nimm mir ein b[C#m]isschen Geschw[B]indigk[A]eit
Gib mir was, irg[B]endwas
das bl[E]eibt
Interlude:
B A B F#m C#m A B Instead of chords: Riff 3 x1
Bridge:
Auch wenn die [A]Welt den Verstand verliert
Das hier bleib[C#m]t unberührt
nicht[B]s passi[E]ert
[C#m] [A] [B] [E]  
Refrain:
Gib mir e[E]in kleines bisschen Sicherheit
In einer [C#m]Welt in der nichts sicher sch[A]eint
Gib mir in[E] dieser schnellen [Bsus4]Zeit[B]
irgendwas, das b[E]leibt
[E]Gib mir einfach nur ein bisschen Halt[B]
Wieg mich [C#m]einfach nur in Sicherheit[A]
Hol mich [E]aus dieser schnellen [Bsus4]Zeit[B]
Nimm mir ein b[C#m]isschen Geschw[B]indigk[A]eit
Gib mir was, irg[B]endwas
das bl[E]eibt

Important: The song above is NOT stored on the Chordie server. The original song is hosted at www.azchords.com. Chordie works as a search engine and provides on-the-fly formatting. Chordie does not index songs against artists'/composers' will. To remove this song please click here.

Text color:
Chord color:
Chord grids: 
Font size:    
Page size: 

A B Bsus4 C#m E F#m
Rate #1 of 7 versions

Login - add to songbook

SHARE PAGE  



You need to log in to post comments