Guitar Tabs, Chords and Lyrics
Major upgrade!! After one year development the new version of Chordie is now online! Please give feedback.


Shade  Silverchair

SHADE by silverchair
Chords required:
[Am] [Bm] [Bb6] [C6] [D6]  
 
 E---0---2----1---3---5-------|
 B---1---3----1---3---5-------|
 G---2---4----3---5---7-------|
 D---2---4----3---5---7-------|
 A---0---2----1---3---5-------|
 E----------------------------|

Introduction:
D C6 / C Am Bm x 3
D C6 C6____ _ = hold
"Verse Baseline" played after every hold on C or C6:
 
 E-----------------------------------------------|
 B-----------------------------------------------|
 G-----------------------------------------------|
 D-----------------------------------------------|
 A----3--3--0----3^---0---(3)---5----------------|
 E-----------------------------------------------|

^ = bend * <---play appropriate D chord
() = hammer
Verse:
Repeat: D C6 C Bb6
Chorus: (Don't go hiding, hiding in the shade ...)
Repeat: D F C G
"Chorus Baseline" after every G chord in the chorus:
* <---following D chord
 
 E-----------------------5---|
 B-----------------------7---|
 G-----------------------7---|
 D-----------------------7---|
 A-----------------3--0--5---|
 E---3--3--3--(5)------------|

Solo: ( () = hammer, m_ = play at m and slide down,
m_n = play at m and slide to n)
 
 E-------------------------------------|
 B---------6---------------------------|
 G---5--7----(7)-7----------5----------|
 D--------------------5-(7)------------|
 A----------------------------5-(7)-5--|
 E-------------------------------------|
 E-------------------------------------|
 B------------------------6------------|
 G--------7_----1_5-5-(7)----7-5---5---|
 D--5-(7)-7_---------------------7-----|
 A-------------------------------------|
 E-------------------------------------|
 E---------------------------------------------------|
 B--6-5-5_3-3-3-3--3_5-6-5-6-6_8-6-------6-5-------7-|
 G---------------------------------5-(7)-------------|
 D-------------------------------------------5-(7)---|
 A---------------------------------------------------|
 E---------------------------------------------------|
 E--------5-(6)-5----------------------------|
 B--6-(8)---------8-6-5-5-6-8-8--------------|
 G------------------------------5-------5----|
 D--------------------------------5-(7)------|
 A-------------------------------------------|
 E-------------------------------------------|

Post-solo:
D C6 <verse baseline> D C6 <chorus baseline>
then chorus, which becomes subject to distortion
Braamo

Important: The song above is NOT stored on the Chordie server. The original song is hosted at www.azchords.com. Chordie works as a search engine and provides on-the-fly formatting. Chordie does not index songs against artists'/composers' will. To remove this song please click here.

Text color:
Chord color:
Chord grids: 
Font size:    
Page size: 

Am Bb6 Bm C6 D6
Rate #2 of 12 versions

Jango Player

Login - add to songbook

SHARE PAGE  




You need to log in to post comments