Guitar Tabs, Chords and Lyrics
Server problems seems to be fixed. Chordie has been experiencing problems with songs disappearing. These issues now seems to be fixed, but still verifying the fix. If you find anything strange, please email admin@chordie.com.


Replace You  Silverstein

Silverstein
Replace You
Rescue
2011
Key: Bb
Tuning: Standard EADGBe
Chords used:
[Gm]Eb [-]- [355333]x68886
Bb - x13331
[F]Cm[-] - [133211]x35543
F/A - x032xx
Bb/D - x587xx
Legend:
Guitar 1: Josh Bradford
Guitar 2: Neil Boshart
Intro:
Josh:
[Gm] [Bb/D] [Eb] [Bb] 
[F/A] [F]  
 
 e|--------------|----|--------------|-----|----|----|
 B|--------------|----|--------------|-----|----|----|
 G|--------------|-7--|-8-8-8--8-8-8-|-3-3-|-2--|----|
 D|-5-5-5--5-5-5-|-8--|-8-8-8--8-8-8-|-3-3-|-3--|-3--|
 A|-5-5-5--5-5-5-|-5--|-6-6-6--6-6-6-|-1-1-|-0--|-3--|
 E|-3-3-3--3-3-3-|----|--------------|-----|----|-1--|

[Gm] [Bb]  
 
 e|-----------------|-------|---------|
 B|-----------------|-------|---------|
 G|-----------------|-------|-3-3-3-3-|
 D|-5-5-5-5-5-5-5-5-|-5-5-5-|-3-3-3-3-|
 A|-5-5-5-5-5-5-5-5-|-5-5-5-|-1-1-1-1-|
 E|-3-3-3-3-3-3-3-3-|-3-3-3-|---------|

x3
[Eb] [Bb] [F/A] [F]  
 
 e|-----------------|-----|----|---|
 B|-----------------|-----|----|---|
 G|-8-8-8-8-8-8-8-8-|-3-3-|-2--|---|
 D|-8-8-8-8-8-8-8-8-|-3-3-|-3--|-3-|
 A|-6-6-6-6-6-6-6-6-|-1-1-|-0--|-3-|
 E|-----------------|-----|----|-1-|

x3
Neil:
[Gm] [Bb/D] [Eb]  
 
 e|-------3--5----|-----|-------3--1-----------3-------|
 B|-----3-------6-|-3---|-------------4-----------4--4-|
 G|---3-----------|-----|---0h3------------0h3---------|
 D|-5-------------|-----|-1--------------1-------------|
 A|---------------|-----|------------------------------|
 E|---------------|-----|------------------------------|

x2
[Bb] [F/A] [F]  
 
 e|------|--------|------|
 B|-6--4-|-3--3h4-|-p3---|
 G|------|--------|----3-|
 D|------|--------|------|
 A|------|--------|------|
 E|------|--------|------|

[Gm] [Bb]  
 
 e|-------3--5-----------3--5--6--5-|-3----|
 B|-----3-------6------3------------|----6-|
 G|---3--------------3--------------|------|
 D|-5--------------5----------------|------|
 A|---------------------------------|------|
 E|---------------------------------|------|

[Eb]  
 
 e|-------3--1-----------3-------|
 B|-------------4-----------4--4-|
 G|---0h3------------0h3---------|
 D|-1--------------1-------------|
 A|------------------------------|
 E|------------------------------|

[Bb] [F/A] [F]  
 
 e|------|--------|------|
 B|-6--4-|-3--3h4-|-p3---|
 G|------|--------|----3-|
 D|------|--------|------|
 A|------|--------|------|
 E|------|--------|------|

Verse 1:
[Gm] I'm the setting [Eb]sun behind the
[Bb]trees the [F]saddest one you've [Gm]seen
I've been burning [Eb]holes and
breaking [Bb]dreams and [F]I regret it
[Gm] I'm fixing [Eb]things I've broken
it's [Bb]not as easy [F]as it used to [Gm]be
I'm throwing [Eb]temper
tantrums I [Bb]used to settle
but [F]now I make a scene
Neil: Verse 1
[Gm] [Eb] [Bb] [F]  
 
 e|--------|--|-------|---|
 B|----3---|--|----1--|---|
 G|-0------|--|-3-----|---|
 D|------3-|--|-------|-3-|
 A|--------|--|-------|---|
 E|--------|--|-------|---|

[Gm] [Eb] [Bb] [F]  
 
 e|--------|--|-------|---|
 B|----3---|--|-3--1--|---|
 G|-0------|--|-------|-2-|
 D|------3-|--|-------|---|
 A|--------|--|-------|---|
 E|--------|--|-------|---|

Refrain 1:
[Cm] you can't be[Eb]lieve
Chorus 1:
[F] I said I'd [Gm]never walk a[Eb]way
but I'm not able to stay
[F] I said I'd [Gm]never leave this
[Eb]place but [Bb]I can't stay here
[F] to watch you [Gm]fade and watch you
[Eb]change into someone I can't [F]face
Now I can't re[Gm]place I can't re[Eb]place you[Bb--F/A-F-]
Verse 2:
[Gm] You're the swirling [Eb]wind above the [Bb]sea
the [F]maddest storm they've [Gm]seen
Now you're breaking [Eb]waves and
smashing [Bb]dreams and [F]you can't help it
[Gm] You're drowning s[Eb]treets and stranding
a [Bb]million people you're s[F]tarting out with [Gm]me
You're crashing [Eb]down from anger
you've s[Bb]topped and settled
and [F]now you're sound asleep
Neil: Verse 2 x2
[Gm] [Eb]  
 
 e|-------------------10-|-------------------10-|
 B|-11----11----11-------|----11----11----11----|
 G|----10----10----10----|-10----10----10-------|
 D|----------------------|----------------------|
 A|----------------------|----------------------|
 E|----------------------|----------------------|

[Bb] [F]  
 
 e|-10----10----10----13-10-|----------------------|
 B|----11----11----11-------|----10----10----10-11-|
 G|-------------------------|-10----10----10-------|
 D|-------------------------|----------------------|
 A|-------------------------|----------------------|
 E|-------------------------|----------------------|

Refrain:
[Cm] and so se[Eb]rene
Chorus 2:
[F] I said I'd [Gm]never walk a[Eb]way
but I'm not able to stay
[F] I said I'd [Gm]never leave this
[Eb]place but [Bb]I can't s[F/A]tay here
[F] to watch you [Gm]fade and watch you
[Eb]change into someone I can't [F]face
Gm Eb(hold)
I can't replace I can't replace you
Bridge: Same as Intro Riff
[Gm] And when the sun is down
and when the skies are
[Eb]calm you'll see calm we'll be
[Gm] We'll wait for the cycle
we'll repeat our [Eb]same mistakes
the same mistakes we've always made
Chorus 3:
[F] I said I'd [Gm]never walk a[Eb]way
but I'm not able to stay
[F] I said I'd [Gm]never leave this
[Eb]place but [Bb]I can't s[F/A]tay here
[F] to watch you [Gm]fade and watch you
[Eb]change into someone I can't [F]face
I can't re[Gm]place I can't re[Eb]place you
Chorus 4:
[F] I said I'd [Gm]never walk a[Eb]way
but I'm not able to stay
[F] I said I'd [Gm]never leave this
[Eb]place but [Bb]I can't s[F/A]tay here
[F] to watch you [Gm]fade and watch you
[Eb]change into someone I can't [F]face
I can't re[Gm]place I can't re[Eb]place you
Outro:
F(hold) Gm(hold) Eb(hold)
I said I'd never walk away

Important: The song above is NOT stored on the Chordie server. The original song is hosted at www.azchords.com. Chordie works as a search engine and provides on-the-fly formatting. Chordie does not index songs against artists'/composers' will. To remove this song please click here.

Text color:
Chord color:
Chord grids: 
Font size:    
Page size: 

Bb Bb/D Cm Eb F Gm
Rate #1 of 10 versions

Jango Player

Login - add to songbook

SHARE PAGE  



You need to log in to post comments