Guitar Tabs, Chords and Lyrics
Server problems seems to be fixed. Chordie has been experiencing problems with songs disappearing. These issues now seems to be fixed, but still verifying the fix. If you find anything strange, please email admin@chordie.com.


A Hazy Shade of Winter  Simon & Garfunkel

[Intro] 
[Am] [(A4)] [(Am)] [G] [(G7)]  
 
 e |---0-----------------|---3----------------|
 B |---1-----------------|---3----------------|
 G |---2-----------------|---4----------------|
 D |---2------0-h2-0-----|---5-----5-~3---0---|
 A |---0--0-3--------3---|---5---5------------|
 E |---------------------|---3----------------|

[F] [(F7)(F)] [E] [(E7)(E)]  
 
 e |---1-----------------|---0----------------|
 B |---1-----------------|---0----------------|
 G |---2-----------------|---1----------------|
 D |---3--------1-0------|---2----2--0--2-----|
 A |---3----0-3-----3----|---2--2-------------|
 E |---1--1--------------|---0----------------|

[Verse 1] 
T[Am]ime, ...[Asus2]time, ...time, see what's be - c[G]ome of me?
While I lo[F]oked around for my...
[G6] [G]  
 
 ...possi -bil -i -ties------, I was so hard to please,
 e |---0-------------|---------------|
 B |---0-------------|---------------|
 G |---0-------------|---------------|
 D |---0-------------|--0--2--3--0---|
 A |---2---0---2--3--|---------------|
 E |---3-------------|---------------|

[C/G] [G] [C/G] [G] [C/G] [G] But look a - ro[Am]und,[A4] le[Am]aves are br[G]own,[G7]
And the s[F]ky [F7] ...[F]is a h[E]azy s[E7]hade [E]of w[Am]inter!
[Verse 2] 
[Am] [Am7] [Am] [Asus2]Hear the [Am7]Sal - v[Am]ation A[G]rmy Band,
D[F]own by the riverside, it's bound to be a better ride,
Than w[G6]hat you've got planned---, carry your c[G]up in your hand,
 
 e |---0-------------------|-------------------|
 B |---0-------------------|-------------------|
 G |---0-------------------|-------------------|
 D |---0-------------------|--0---2---3---0----|
 A |---2----0--------2--3--|-------------------|
 E |---3-------------------|-------------------|

[C/G] [G] [C/G] [G] [C/G] [G] And look a - r[Am]ound,[A4] l[Am]eaves are br[G]own now,[G7]
And the s[F]ky [F7] ...[F]is a h[E]azy s[E7]hade [E]of w[Am]inter!
[Verse 3] 
[Am] [Am7] [Am] [Asus2]Hang on [Am7]to y[Am]our ho[G]pes, my friend,
T[F]hat's an easy thing to say, but, if your hopes should pass away,
[G6] [G]  
 
 Simp -ly pre -tend------ ...that you can build them again,
 e |--0-----------------|-------------------|
 B |--0-----------------|-------------------|
 G |--0-----------------|-------------------|
 D |--0-----------------|--0---2---3---0----|
 A |--2---0-------2--3--|-------------------|
 E |--3-----------------|-------------------|

[C/G] [G] [C/G] [G] [C/G] [G] Look a - ro[Am]und, [A4]
The g[Am]rass is h[G]igh, [G7] the fields are r[F]ipe,[F7]
It[F]'s the spr[E]ingtime [E7]of [E]my l[Am]ife!
[Bridge] 
| [Am] / / / / | / / [Asus2] / / |
[F] [C]  
 
 Ah------, seasons change with the scenery,

Weaving time in a tap[G7]estry,
Won't you stop and re -[Am]mem[Asus2] -ber [Am]me, [G] at any convenient time?
Fu[F]nny how my memory skips, while looking over manuscripts...
[G6] [G]  
 
 ...of un -published rhyme-----, ...drink -ing my vodka and lime,
 e |---0------------------|----------------------|
 B |---0------------------|----------------------|
 G |---0------------------|----------------------|
 D |---0------------------|--0----2----3----0----|
 A |---2-----0-----2--3---|----------------------|
 E |---3------------------|----------------------|

[C/G] [G] [C/G] [G] [C/G] [G] I look a - r[Am]ound,[A4] l[Am]eaves are br[G]own now,[G7]
And the s[F]ky [F7] ...[F]is a h[E]azy s[E7]hade [E]of wi[Am]nter![A4]
[Coda] 
L[Am]ook a - ro[G]und, [G7] leaves are br[F]own,[F7]
There's a p[E]atch of s[E7]now on the gr[Am]ound,[A4]
L[Am]ook a - ro[G]und, [G7] leaves are br[F]own,[F7]
There's a p[E]atch of s[E7]now on the gr[Am]ound,[A4]
L[Am]ook a - ro[G]und, [G7] leaves are br[F]own,[F7]
E E7 Am N.C.
There's a patch of snow on the ground! Hah!

Important: The song above is NOT stored on the Chordie server. The original song is hosted at www.azchords.com. Chordie works as a search engine and provides on-the-fly formatting. Chordie does not index songs against artists'/composers' will. To remove this song please click here.

Text color:
Chord color:
Chord grids: 
Font size:    
Page size: 

A4 Am Am7 Asus2 C C/G E E7 F F7 G G6 G7
Rate #1 of 1 versions

Login - add to songbook

SHARE PAGE  



You need to log in to post comments