Guitar Tabs, Chords and Lyrics
Server problems seems to be fixed. Chordie has been experiencing problems with songs disappearing. These issues now seems to be fixed, but still verifying the fix. If you find anything strange, please email admin@chordie.com.


Perfectly Perfect  Simple Plan

Tuning: Standart
Intro:
[C]  
 
 e|------------------|
 B|--------1---------|
 G|------------0---0-| x2
 D|----2---------2---|
 A|--3---3-----------|
 E|------------------|

Verse:
C G Am F (This part might be inaccurate)
 
 e|------------------|------------------|------------------|------------------|
 B|--------1---------|--------1---------|--------1---------|--------1---------|
 G|------------0---0-|------------0---0-|------------2---2-|------------------| x4
 D|----2---------2---|--------------0---|----2---------2---|------------------|
 A|--3---3-----------|----2-------------|--0---0-----------|----3-------3---3-|
 E|------------------|--3---3-----------|------------------|--1---1-------1---|

? F C F
 
 e|------------------|------------------|------------------|------------------|
 B|--------1---------|--------1---------|--------1---------|--------1---------|
 G|------------0---0-|------------------|------------0---0-|------------------|
 D|----2---------2---|------------------|----2---------2---|------------------|
 A|--3---3-----------|----3-------3---3-|--3---3-----------|----3-------3---3-|
 E|------------------|--1---1-------1---|------------------|--1---1-------1---|

Chorus: (for rythm)
[C] [F] [C] [F] [C] [G] [Am]  
 
 e|--0---1---0---1---1---3---0-| Struming - something like this:
 B|--1---1---1---1---1---3---1-| dduudu for each chord, it can be mix with simple dudu between chords
 G|--0---2---0---2---2---0---2-|
 D|--2---3---2---3---3---0---2-|
 A|--3---3---3---3---3---2---0-|
 E|--x---1---x---1---1---3---x-|

[F(dud)G(udu)C] [C]  
 
 e|--1-----3----|-----------------|-----------------|
 B|--1-----3----|-------1---------|-------1---------|
 G|--2-----0----|-----------0---0-|-----------0---0-|
 D|--3-----0----|---2---------2---|---2---------2---|
 A|--3-----2----|-3---3-----------|-3---3-----------|
 E|--1-----3----|-----------------|-----------------|

Chorus: (for picking)
[C] [F] [C] [F] [C]  
 
 e|------------------|------------------|------------------|------------------|------------------|
 B|--------1---------|--------1---------|--------1---------|--------1---------|--------1---------|
 G|------------0---0-|------------------|------------0---0-|------------2---2-|------------0---0-|
 D|----2---------2---|------------------|----2---------2---|----2---------2---|----2---------2---|
 A|--3---3-----------|----3-------3---3-|--3---3-----------|--0---0-----------|--3---3-----------|
 E|------------------|--1---1-------1---|------------------|------------------|------------------|

[G] [Am] [F] [G] [C] [C]  
 
 e|------------------|------------------|---------------|-----------------|-----------------|
 B|--------1---------|--------1---------|---------------|-------1---------|-------1---------|
 G|------------0---0-|------------2---2-|------2------0-|-----------0---0-|-----------0---0-|
 D|--------------0---|----2---------2---|---------------|---2---------2---|---2---------2---|
 A|----2-------------|--0---0-----------|----3------2---|-3---3-----------|-3---3-----------|
 E|--3---3-----------|------------------|--1------3-----|-----------------|-----------------|

Verse:
C G Am F (This part might be inaccurate)
 
 e|------------------|------------------|------------------|------------------|
 B|--------1---------|--------1---------|--------1---------|--------1---------|
 G|------------0---0-|------------0---0-|------------2---2-|------------------| x4
 D|----2---------2---|--------------0---|----2---------2---|------------------|
 A|--3---3-----------|----2-------------|--0---0-----------|----3-------3---3-|
 E|------------------|--3---3-----------|------------------|--1---1-------1---|

Chorus: (for rythm)
[C] [F] [C] [F] [C] [G] [Am]  
 
 e|--0---1---0---1---1---3---0-| Struming - something like this:
 B|--1---1---1---1---1---3---1-| dduudu for each chord, it can be mix with simple dudu between chords
 G|--0---2---0---2---2---0---2-|
 D|--2---3---2---3---3---0---2-|
 A|--3---3---3---3---3---2---0-|
 E|--x---1---x---1---1---3---x-|

[F(dud)G(udu)]  
 
 e|--1-----3----|
 B|--1-----3----|
 G|--2-----0----| (repeat all)
 D|--3-----0----|
 A|--3-----2----|
 E|--1-----3----|

Bridge:
[F] [C] [G] [F] [F] [Am] [G] [F]  
 
 e|--1---0---3---1---1---0---3---1-| Struming - something like this:
 B|--1---1---3---1---1---1---3---1-| ddddddd(7 times)very very fast du (it`s should sound like in acoustic
 G|--2---0---0---2---2---2---0---2-| version of Swing, Swing by All-American Rejects) or you can simply strum
 D|--3---2---0---3---3---2---0---3-| always d
 A|--3---3---2---3---3---0---2---3-|
 E|--1---x---3---1---1---x---3---1-|

Last Chorus
[C] [F] [C] [F] [C] [G] [Am]  
 
 e|--0---1---0---1---1---3---0-| Struming: C F C F play 1 strum, with C and then G Am F G start strumnig
 B|--1---1---1---1---1---3---1-| d from quiet on C and max loud on last G, and then....
 G|--0---2---0---2---2---0---2-| ...for this part I think better use dudu . it`s sound more dynamically
 D|--2---3---2---3---3---0---2-| then dduudu
 A|--3---3---3---3---3---2---0-|
 E|--x---1---x---1---1---3---x-|

[F] [G] [C]  
 
 e|--1-----3----| |-0-|
 B|--1-----3----| |-1-|
 G|--2-----0----| (repeat all)|-0-|
 D|--3-----0----| |-2-|
 A|--3-----2----| |-3-|
 E|--1-----3----| |-x-|

[G] [Am] [F] [G] [C]  
 
 e|--3---0---1---3---0-| continue struming with dudu
 B|--3---1---1---3---1-|
 G|--0---2---2---0---0-|
 D|--0---2---3---0---2-|
 A|--2---0---3---2---3-|
 E|--3---x---1---3---x-|

[G] [Am] [F] [G] [C]  
 
 e|--3-|--0--|---------------|-----------0------||
 B|--3-|--1--|---------------|---------1--------||
 G|--0-|--2--|------2------0-|-------0----------||
 D|--0-|--2--|---------------|-----2------------||
 A|--2-|--0--|----3------2---|---3--------------||
 E|--3-|--x--|--1------3-----|-x----------------|| 


Important: The song above is NOT stored on the Chordie server. The original song is hosted at www.azchords.com. Chordie works as a search engine and provides on-the-fly formatting. Chordie does not index songs against artists'/composers' will. To remove this song please click here.

Text color:
Chord color:
Chord grids: 
Font size:    
Page size: 

Am C F G
Rate #1 of 2 versions

Login - add to songbook

SHARE PAGE  




You need to log in to post comments