Guitar Tabs, Chords and Lyrics
Server problems seems to be fixed. Chordie has been experiencing problems with songs disappearing. These issues now seems to be fixed, but still verifying the fix. If you find anything strange, please email admin@chordie.com.


Problem Child  Simple Plan

[INTRO] 
 
 e|--------------|-------0-----|--------0-----|---------------|
 B|-------1------|---------1---|----------1---|-------0h1/5~--|
 G|----------0---|-------------|-----2--------|---------------|2x
 D|----2---------|----3--------|--0-----------|----3----------|
 A|--3-----------|--3----------|--------------|--3------------|
 E|--------------|-------------|--------------|---------------|

[VERSE 1] 
 
 e|--------------|-------0-----|--------0-----|---------------|
 B|-------1------|---------1---|----------1---|-------0h1/5~--|
 G|----------0---|-------------|-----2--------|---------------|4x
 D|----2---------|----3--------|--0-----------|----3----------|
 A|--3-----------|--3----------|--------------|--3------------|
 E|--------------|-------------|--------------|---------------|

Here we are again, Wake up 5 am
I didn't mean a word I said
Can we just pretend, I can take it back
Change the way the story ends
I remember when, things were simple then
Didn't know we hurt this way
I would fall asleep, you would carry me
You would take my fears away
[PRECBORUS] 
 
 e|-------------|-------------|-------------|----------------|
 B|--------1----|--------1----|-------------|--------0h1/5~--|
 G|-----2-------|-----2-------|--------0----|----------------|2x
 D|--3----------|--3----------|-----0-------|-----0----------|
 A|-------------|-------------|-------------|----------------|
 E|-------------|-------------|--3----------|--3-------------|

Am I messed up, Forever flawed
Beyond repair, but forever yours
[CBORUS] (Strumming)
[C]All my life all I ever did was [Am]try and try
I never meant to be your [F]Problem Child
Your [G]Problem Child, Yeah
I [C]don't know why, I always find the way to [Am]make you cry
I never meant to be your [F]Problem Child
Your [G]Problem Child, Yeah
[VERSE 2] 
 
 e|--------------|-------0-----|--------0-----|---------------|
 B|-------1------|---------1---|----------1---|-------0h1/5~--|
 G|----------0---|-------------|-----2--------|---------------|2x
 D|----2---------|----3--------|--0-----------|----3----------|
 A|--3-----------|--3----------|--------------|--3------------|
 E|--------------|-------------|--------------|---------------|

When you look at me, I wonder if you see
All the Things you thought I could be
All the Crazy nights, All the stupid fight
All the Tears that filled our eyes
[PRECBORUS] 
 
 e|-------------|-------------|-------------|----------------|
 B|--------1----|--------1----|-------------|--------0h1/5~--|
 G|-----2-------|-----2-------|--------0----|----------------|2x
 D|--3----------|--3----------|-----0-------|-----0----------|
 A|-------------|-------------|-------------|----------------|
 E|-------------|-------------|--3----------|--3-------------|

Am I messed up, Forever flawed
Beyond repair, but forever yours
[CBORUS] (Strumming)
[C]All my life all I ever did was [Am]try and try
I never meant to be your [F]Problem Child
Your [G]Problem Child, Yeah
I [C]don't know why, I always find the way to [Am]make you cry
I never meant to be your [F]Problem Child
Your [G]Problem Child, Yeah
[INTERLUDE] 
Bm-G-D-C#m (I will post the Interlude Tab later if I'm Done with it.)
[CBORUS] (Strumming)
[C]All my life all I ever did was [Am]try and try
I never meant to be your [F]Problem Child
Your [G]Problem Child, Yeah
I [C]don't know why, I always find the way to [Am]make you cry
I never meant to be your [F]Problem Child
Your [G]Problem Child, Yeah

Important: The song above is NOT stored on the Chordie server. The original song is hosted at www.azchords.com. Chordie works as a search engine and provides on-the-fly formatting. Chordie does not index songs against artists'/composers' will. To remove this song please click here.

Text color:
Chord color:
Chord grids: 
Font size:    
Page size: 

Am C F G
Rate #1 of 2 versions

Jango Player

Login - add to songbook

SHARE PAGE  




You need to log in to post comments