Guitar Tabs, Chords and Lyrics
Server problems seems to be fixed. Chordie has been experiencing problems with songs disappearing. These issues now seems to be fixed, but still verifying the fix. If you find anything strange, please email admin@chordie.com.


Zombies Ate My Neighbors   Single File

 
 e||-----------------|-----------------| | So call the neighbor kids, |
 B||-----------------|-----------------| | with the trash can lids, |
 G||-6-6-6-6---------|-----------------| x2 | and the buckets on their heads. | x1
 D||-6-6-6-6-6-6-6-6-|-9-9-9-9-4-4-6-6-| | I'm telling you, we're gonna need |
 A||-4-4-4-4-6-6-6-6-|-9-9-9-9-4-4-6-6-| | a little help tonight |
 E||---------4-4-4-4-|-7-7-7-7-2-2-4-4-| | |

 


 


 Turn it up!


 


 [1] [+] [2] [+] [3] [+] [4] [+] [1] [+] [2] [+] [3] [+] [4] [+] [1] [+] [2] [+] [3] [+] [4] [+] [1] [+] [2] [+] [3] [+] [4] [+]  

 
 e|------------------|-----------------|------------------|-----------------|
 B|------------------|-----------------|------------------|-----------------|
 G|-6-6-6-66---------|-----------------|-6-6-6-66---------|-----------------|
 D|-6-6-6-666-6-6-66-|-9-9-9-994-4-6-6-|-6-6-6-666-6-6-66-|-9-------4-------|
 A|-4-4-4-446-6-6-66-|-9-9-9-994-4-6-6-|-4-4-4-446-6-6-66-|-9-------4-------|
 E|---------4-4-4-44-|-7-7-7-772-2-4-4-|---------4-4-4-44-|-7-------2-------|

 


 


 Verse 1


 


 [1] [+] [2] [+] [3] [+] [4] [+] [1] [+] [2] [+] [3] [+] [4] [+]  

 
 e|-----------------|-----------------| | So hey man check this out, downtown there's rioting, |
 B|-----------------|-----------------| | something's spreading through the crowd,try channel 9 |
 G|-------6---------|-----------------| x4 | I'm pretty sure they're heading straight for |
 D|-------6-------6-|-------9-------4-| | this part of town. I can't be certain, |
 A|-------4-------6-|-------9-------4-| | but I swear i hear them just outside
 E|---------------4-|-------7-------2-| | there's no way that this is real.

 


 


 "So count me in" end on a WHAU


 


 [1] [+] [2] [+] [3] [+] [4] [+] [1] [+] [2] [+] [3] [+] [4] [+] [1] [2] [3] [4]  

 
 e|------------------|-----------------| |---------|
 B|------------------|-----------------| |---------|
 G|-6-6-6-66---------|-----------------| x2 |-6-------|
 D|-6-6-6-666-6-6-66-|-9-9-9-994-4-6-6-| |-6-------|
 A|-4-4-4-446-6-6-66-|-9-9-9-994-4-6-6-| |-4-------|
 E|---------4-4-4-44-|-7-7-7-772-2-4-4-| |---------|

 


 


 [1] [+] [2] [+] [3] [+] [4] [+] [1] [+] [2] [+] [3] [+] [4] [+]  

 
 e||-----------------|-----------------| | So grab something sharp, |
 B||-----------------|-----------------| | Find some cover, |
 G||-6-6-6-6---------|-----------------| x2 | kill the lights, |
 D||-6-6-6-6-6-6-6-6-|-9-9-9-9-4-4-6-6-| | nail the back door shut |
 A||-4-4-4-4-6-6-6-6-|-9-9-9-9-4-4-6-6-| | this isn't funny any more |
 E||---------4-4-4-4-|-7-7-7-7-2-2-4-4-| | oh, no this means war |

 


 


 [1] [+] [2] [+] [3] [+] [4] [+] [1] [+] [2] [+] [3] [+] [4] [+] [1] [+] [2] [+] [3] [+] [4] [+] [1] [+] [2] [+] [3] [+] [4] [+]  

 
 e|-----------------|-----------------|-----------------|-----------------| | Don't take this the |
 B|---6---6---------|-----------------|-----------------|-----------------| | wrong way, I'd much |
 G|---6---6---2---2-|---3---3---5---5-|-6-6-6-6---------|-----------------| | rather choke and die |
 D|---6---6---3---3-|---4---4---6---6-|-6-6-6-6-6-6-6-6-|-9-9-9-9---------| | than sit alone and |
 A|---4---4---3---3-|---4---4---6---6-|-4-4-4-4-6-6-6-6-|-9-9-9-9---------| | fall without a fight |
 E|-----------1---1-|---2---2---4---4-|---------4-4-4-4-|-7-7-7-7---------| | |

 


 


 Chorus


 


 [1] [+] [2] [+] [3] [+] [4] [+] [1] [+] [2] [+] [3] [+] [4] [+]  

 
 e||-----------------|-----------------| | So call the neighbor kids, |
 B||-----------------|-----------------| | with the trash can lids, |
 G||-6-6-6-6---------|-----------------| x2 | and the buckets on their heads. | x2
 D||-6-6-6-6-6-6-6-6-|-9-9-9-9-4-4-6-6-| | I'm telling you, we're gonna need |
 A||-4-4-4-4-6-6-6-6-|-9-9-9-9-4-4-6-6-| | a little help tonight |
 E||---------4-4-4-4-|-7-7-7-7-2-2-4-4-| | |


Important: The song above is NOT stored on the Chordie server. The original song is hosted at www.azchords.com. Chordie works as a search engine and provides on-the-fly formatting. Chordie does not index songs against artists'/composers' will. To remove this song please click here.

This song is displayed as text-only. Transposing and tuning is only available for chordpro-songs.
Rate #2 of 4 versions

Login - add to songbook

SHARE PAGE  



You need to log in to post comments