Guitar Tabs, Chords and Lyrics
Major upgrade!! After one year development the new version of Chordie is now online! Please give feedback.


Angel of Death   Slayer

 
 B:-o-----------------------------|-------------------------------|
 G:-------------------------------|-------------------------------|
 D:-------------------------------|-------------------------------|
 A:-o2-------------------------3--|--3-------------------------4--|
 E:--0--0-0-0-0-0-0-0-0-0-0-0--1--|--1--0-0-0-0-0-0-0-0-0-0-0--2--|

 


 PM................... PM...................


 *4th time


 x6


 

 
 e:~~~~~~~~~~~~~~~~~~~~~~~~~~~~~~~~~~|-------------------|
 B:----------------------------------|-----------------o-|
 G:----------------------------------|-------------------|
 D:----------------------------------|-------------------|
 A:--4-------------------------------|-----------7----6o-|
 E:--2--0-0-0-0-0-0-0-0-0-0-0-0-0-0--|--1--0--1--5----4--|

 


 PM.........................


 


 Rhy Fig 2


 

 
 e:-----------------------------|-----------------------------|
 B:-----------------------------|-o---------------------------|
 G:-----------------------------|-----------------------------|
 D:--3--------------------------|----------------3------------|
 A:--3--------------------------|-o2-------------1------------|
 E:--1--------------------------|--0--0-0-0-0-0----0-0-0-0-0--|
 e:-------------------------|------------------------------|
 B:-------------------------|------------------------------|
 G:-------------------------|------------------------------|
 D:-------------------------|----------------3-------------|
 A:--2----------------------|--2-------------1-------------|
 E:--0--0-0-0-0-0--1--4--1--|--0--0-0-0-0-0-----0-0-0-0-0--|
 e:----------------------|-----------------------------|
 B:----------------------|-----------------------------|
 G:----------------------|-----------------------------|
 D:----------------3--6--|---------------3-------------|
 A:--2-------------3--6--|-2-------------1-------------|
 E:--0--0-0-0-0-0--1--4--|-0--0-0-0-0-0-----0-0-0-0-0--|
 e:-------------------------|------------------------------|
 B:-------------------------|------------------------------|
 G:-------------------------|------------------------------|
 D:-------------------------|----------------3-------------|
 A:--2----------------------|--2-------------1-------------|
 E:--0--0-0-0-0-0--1--4--1--|--0--0-0-0-0-0-----0-0-0-0-0--|

 


 


 x2


 

 
 e:----------------------|
 B:--------------------o-|
 G:----------------------|
 D:----------------------|
 A:--2-------------7--8o-|
 E:--0--0-0-0-0-0--5--6--|

 


 


 Rhy Fig 3. x4


 

 
 e:----------------------------------|---------------------------|
 B:-o--------------------------------|-------------------------o-|
 G:----------------------------------|---------------------------|
 D:----------------------------------|---------------------------|
 A:-o--------------------------------|------------------------4o-|
 E:--1--1-1-1-1-1-1--2--1-1-1-1-1-1--|--3--1-1-1-1-1-1--4--1--2--|

 


 


 Fig 1 x2


 Fig 2 x2


 Fig 1 x2


 


 Fig 1B


 

 
 e:--------------------------------|---------------------------------|
 B:--------------------------------|---------------------------------|
 G:--------------------------------|---------------------------------|
 D:--9-------------------------10--|--10-------------------------11--|
 A:--7-------------------------8---|--8--------------------------9---|
 E:-----0-0-0-0-0-0-0-0-0-0-0------|------0-0-0-0-0-0-0-0-0-0-0------|
 e:-----------------------------|-----------------------|
 B:-----------------------------|-----------------------|
 G:-----------------------------|-----------------------|
 D:--11-------------------------|--10--9--10--14----13--|
 A:--9--------------------------|--8---7--8---12----11--|
 E:------0-0-0-0-0-0-0-0-0-0-0--|-----------------------|
 e:----------------------|---------------------------|
 B:----------------------|-o-------------------------|
 G:----------------------|---------------------------|
 D:--3-------------------|---------------------------|
 A:--3-------------------|-o7h8p7--------------------|
 E:--1-------------------|---------0--0--0--0--0--0--|

 


 ____________________________


 [/] [1] [2] [3] [4] [5]  

 
 e:-----------------------------|---------------------------|
 B:-----------------------------|---------------------------|
 G:-----------------------------|---------------------------|
 D:-----------------------------|---------------------6--5--|
 A:--6h7p6-----5h6p5-----4h5p4--|--7h8p7-----------7--------|
 E:---------0---------0---------|---------0--0--6-----------|

 


 ____________________________


 x6


 

 
 e:--------------------------|
 B:------------------------o-|
 G:--------------------------|
 D:-----------7--------9--8--|
 A:--6--7--8--------10-----o-|
 E:--------------9-----------|

 


 


 Rhy Fig 4


 

 
 e:------------------------|----------------------|-------------------------|
 B:-o----------------------|----------------------|-------------------------|
 G:------------------------|----------------------|-------------------------|
 D:------------------------|-----------------2--3-|-------------------------|
 A:-o2--2--2-3--2----------|-----2--3--------0--1-|--2--2--2--3--2----------|
 E:--0--0--0-1--0--0--0--0-|--0--0--1--0--0-------|--0--0--0--1--0--0--0--0-|

 


 __________________________ _________________


 / 1 2 3 x4/ 4


 

 
 e:--------------------------|----------------|
 B:------------------------o-|----------------|
 G:--------------------------|-9--------6--5--|
 D:--------------------------|---10-8----7--7-|
 A:------------------------o-|--------9-------|
 E:--0--0--0--0--0--0--0--0--|----------------|
 e:--------------------------|--------------------------|
 B:--------------------------|--------------------------|
 G:--------------------------|--------------------------|
 D:--------------------------|--------------------------|
 A:--3--3--3--3--3--3--3--3--|--6--6--6--6--5--5--5--5--|
 E:--1--1--1--1--1--1--1--1--|--4--4--4--4--3--3--3--3--|
 e:------------------------|-----------------------|------------------------|
 B:------------------------|-----------------------|------------------------|
 G:------------------------|9-----------6-----5----|------------------------|
 D:------------------------|---10--8--------7-----7|------------------------|
 A:-2--2--2--3--2----------|----------9------------|-3--3--3--3--3--3--3--3-|
 E:-0--0--0--1--0--0--0--0-|-----------------------|-1--1--1--1--1--1--1--1-|
 e:--------------------------|
 B:--------------------------|
 G:--------------------------|
 D:--------------------------|
 A:--6--6--6--6--5--5--5--5--|
 E:--4--4--4--4--3--3--3--3--|
 e||------------------------|---------------------|-------------------------|
 B||------------------------|---------------------|-------------------------|
 G||*-----------------------|---------------------|-------------------------|
 D||*-----------------------|----------------2--3-|-------------------------|
 A||-2--2--2--3--2----------|----2--3--------0--1-|--2--2--2--3--2----------|
 E||-0--0--0--1--0--0--0--0-|-0--0--1--0--0-------|--0--0--0--1--0--0--0--0-|

 


 ___________________________ __________________________


 / 1 3 5 x6/ 2 4


 

 
 e:--------------------------|---------------------------|
 B:--------------------------|---------------------9-----|
 G:-------------------------*|---------------10--9-------|
 D:-------------------------*|--------10--9--------------|
 A:--------------------------|--8--7---------------------|
 E:--0--0--0--0--0--0--0--0--|---------------------------|

 


 ______________________________


 [/] [6]  

 
 e:----------------------------|---------------------|-----------------|
 B:----------------------------|---------------------|-----------------|
 G:--9------------6-----7------|---------------------|-----------------|
 D:-----10--8--------8-----8---|---------------------|-----------------|
 A:------------9---------------|--3----3--3--3----3--|--6--6--6--6--5--|
 E:----------------------------|--1----1--1--1----1--|--4--4--4--4--3--|
 e:--------------------------|----------------------------|
 B:--------------------------|----------------------------|
 G:--------------------------|--9------------6-----7------|
 D:--------------------------|-----10--8--------8-----8---|
 A:--2--2--2--3--2-----------|------------9---------------|
 E:--0--0--0--1--0--0--0--0--|----------------------------|
 e:-------------------------|------------------|
 B:-------------------------|------------------|
 G:-------------------------|------------------|
 D:-3-----------3-----------|--6--------5------|
 A:-3-----------3-----------|--4--------3------|
 E:-1--1--1--1--1--1--1--1--|--4--------3------|

 


 


 w/Fill 1 1st time


 

 
 e:||----------------------------|-----------------------------|
 B:||----------------------------|-----------------------------|
 G:||*---------------------------|-----------------------------|
 D:||*---------------------------|-----------------------------|
 A:||---7h8p7--------------------|--6h7p6-----5h6p5-----4h5p4--|
 E:||----------0--0--0--0--0--0--|---------0---------0---------|

 


 


 w/Fill 2 3rd time x3


 

 
 e:|----------------------------|-------------------------------|
 B:|----------------------------|-------------------------------|
 G:|----------------------------|------------------------------*|
 D:|----------------------6--5--|------------7----------9---8--*|
 A:|--7h8p7------------7--------|--6--7--8----------10----------|
 E:|---------0--0---6-----------|---------------9---------------|

 


 


 FILL 1 FILL 2


 

 
 e:----------------------------| |---------------------------|
 B:----------------------------| |---------------------------|
 G:----------------------------| |---------------------------|
 D:------------5---------------| |-----------7-----10--9-----|
 A:--6h7p6--------6-----4h5p4--| |--6--7--8------------------|
 E:---------0--------0---------| |--------------9---------7--|
 e:|---------------------------|-----------------------------|--------------|
 B:|---------------------------|-----------------------------|--------------|
 G:|---------------------------|-----------------------------|--------------|
 D:|---------------------------|-----------------------------|--10----------|
 A:|--7h8p7--------------------|--6h7p6-----5h6p5-----4h5p4--|--8-----------|
 E:|---------0--0--0--0--0--0--|---------0---------0---------|--------------|

 


 


 Guitar Solo


 

 
 eb:21b-21b-21-19h21p19----19-21b-21-19h21p19---------------------------------------|
 Bb:--------------------21--------------------21-18h20p18---------------------------|
 Gb:------------------------------------------------------20-18h20p18---------------|
 Db:------------------------------------------------------------------20-18h20p18---|
 Ab:------------------------------------------------------------------------------20|
 Eb:--------------------------------------------------------------------------------|
 eb:------------------------------------------------------12-14-15-14-12-|
 Bb:----------------------------------------12-13-12-13-15---------------|
 Gb:-------------------------------12-14-15------------------------------|
 Db:----------------------12-14-15---------------------------------------|
 Ab:----------12-13-12-15------------------------------------------------|
 Eb:-12-13-15------------------------------------------------------------|
 eb:----------------------------------------------------------------------|
 Bb:-15-13-12-13-12-------------------------------------------------------|
 Gb:----------------14-12--3b--3b--3b-3b-3b--3-2-3-5-3-2------------------|
 Db:-----------------------------------------------------5-2-3-5-3-2-3-2--|
 Ab:----------------------------------------------------------------------|
 Eb:----------------------------------------------------------------------|
 eb:---------------------------------------------------15-17-19-------------|
 Bb:------------------------------------------15-16-18----------18-15-16-15-|
 Gb:---------------6-7-9----------11-12-14-12-------------------------------|
 Db:--------5-6-8--------9-10-12--------------------------------------------|
 Ab:-5-3-2~~----------------------------------------------------------------|
 Eb:------------------------------------------------------------------------|
 bar--------
 eb:-----------------------|-------------------------------------------18b--|
 Bb:-----------------------|---------------------------------------/17------|
 Gb:--17-15-17ahb----------|-2b-2b-2b--2p0h2p0h2-(2)-2b-5b-9b--17b----------|
 Db:-----------------------|------------------------------------------------|
 Ab:-----------------------|------------------------------------------------|
 Eb:-----------------------|------------------------------------------------|
 eb:-16-17-19-17-16---------------------------------------------------------|
 Bb:---------------19-16-17-19-17-16----------------------------------------|
 Gb:---------------------------------18-15-16-18-16-15----------------------|
 Db:--------------------------------------------------18-15-16-18-16-15-14~~|
 Ab:------------------------------------------------------------------------|
 Eb:------------------------------------------------------------------------|
 eb:-12-13-15-------12-12-13-12-12-13-15-12-13-15---------------------------|
 Bb:----------15-13-------------------------------15-12-13-12---------------|
 Gb:----------------------------------------------------------14-12-14-12-11|
 Db:------------------------------------------------------------------------|
 Ab:------------------------------------------------------------------------|
 Eb:------------------------------------------------------------------------|
 eb:-------------------------------------------------------------------|
 Bb:-------------------------------------------------------------------|
 Gb:-------------------------------------------------------------------|
 Db:-15-13-12---------------------------------------12-14-15-12-14-15--|
 Ab:----------15-13-12-11~~-12-12-12-13-15-12-13-15--------------------|
 Eb:-------------------------------------------------------------------|
 eb:-----------------------------------------|
 Bb:-----------------12-15b~~-15b-17b~~-17---|
 Gb:12-13-15-12-13-15------------------------|
 Db:-----------------------------------------|
 Ab:-----------------------------------------|
 Eb:-----------------------------------------|
 eb:-22-19-20-22-19-20-19-20-22----------------------------------|
 Bb:----------------------------22-20-19-------------------------|
 Gb:-------------------------------------21-18-19-18-19-21-19-18-|
 Db:-------------------------------------------------------------|
 Ab:-------------------------------------------------------------|
 Eb:-------------------------------------------------------------|

 


 


 bar


 

 
 eb:-----------------------------------------------22b~~-22~~----------13--|
 Bb:-----------------------------------------------------------------12----|
 Gb:-----------------------------------------------------------------------|
 Db:-21-18-19-18-19-21-19-18-----------------------------------------------|
 Ab:-------------------------20-17-18-17------------------------17---------|
 Eb:-------------------------------------20-18-17-------------16-----------|

 


 


 Fig 1 x2


 Fig 1b x2


 


 

 
 e:------------------------------|----------------------------|
 B:------------------------------|----------------------------|
 G:-10---------------------------|----------------------------|
 D:-10------------------------9--|--9------(9)----------------|
 A:--8------------------------7--|--7------(7)----------------|
 E:------------------------------|----------------------------|


Important: The song above is NOT stored on the Chordie server. The original song is hosted at www.azchords.com. Chordie works as a search engine and provides on-the-fly formatting. Chordie does not index songs against artists'/composers' will. To remove this song please click here.

This song is displayed as text-only. Transposing and tuning is only available for chordpro-songs.
Rate #1 of 1 versions

Login - add to songbook

SHARE PAGE  



You need to log in to post comments