Guitar Tabs, Chords and Lyrics
Major upgrade!! After one year development the new version of Chordie is now online! Please give feedback.


Being Beige  The Smashing Pumpkins

Tuning: *Capo - 3rd fret
Chords used:
Fmaj7 - xx3210
C - x32010
G - 320033
Dm - xx0231
Intro
 
 e|---------------------------------------------------------------------------|
 B|----1-----1---1-----1-----1---1-----1-----1---1-----1---------1------------|
 G|--0-----0---------0-----0---------0-----0---------0-------0----------------|
 D|3-----3-----3---2-----2-----2---3-----3-----3---2-------2------------------|
 A|------------------------------------------------------0-----0--------------|
 E|---------------------------------------------------------------------------|

Verse 1 - *Play picking pattern 2 times
 
 e|---------------------------------------------------------------------------|
 B|o-----1-----1---1-----1-----1---1-----1-----1---1-----1---------1----------|
 G|----0-----0---------0-----0---------0-----0---------0-------0--------------|
 D|--3-----3-----3---2-----2-----2---3-----3-----3---2-------2----------------|
 A|o-------------------------------------------------------0-----0------------|
 E|---------------------------------------------------------------------------|
 e|---------------------------------------------------------------------------|
 B|----1-----1---1-----1-----1---1-----3-----3---1--------------------------o-|
 G|--0-----0---------0-----0---------0-----0----------------------------------|
 D|3-----3-----3---2-----2-----2---0-----0-----0------------------------------|
 A|-------------------------------------------------------------------------o-|
 E|---------------------------------------------------------------------------| 

I don?t love you, for what it?s worth.
So if you?re leaving, can you hurt?
Cherry blossom, this is goodbye.
Come here lately and you fly.
[Fmaj7] When they say what it?s [C]worth, the world tells you
[Fmaj7]first. Then you [C]know where to [G]hurt.
[Fmaj7] The world?s on [C]fire, so... [Fmaj7] The world?s on [C]fire, so...
[Fmaj7] The world?s on [C]fire, so have you [G]heard?
[Fmaj7]Lover let me please, [C]fall on down your knees.
[Fmaj7]Lover let me [C]please be the [G]one.
[Fmaj7]Know the prayers to make. [C]Flowers made to fade. And
[Fmaj7]when you swore to [C]wait, you [Dm]left first.
[Fmaj7] The world?s on [C]fire, so... [Fmaj7] The world?s on [C]fire, so...
Fmaj7 C G(hold)
The world?s on fire, so have you heard?
 
 e|---------------------------------------------------------------------------|
 B|----1-----1---1-----1-----1---1-----1-----1---1-----1---------1------------|
 G|--0-----0---------0-----0---------0-----0---------0-------0----------------|
 D|3-----3-----3---2-----2-----2---3-----3-----3---2-------2------------------|
 A|------------------------------------------------------0-----0--------------|
 E|---------------------------------------------------------------------------|

Verse 2 - *Play picking pattern 1 time
 
 e|---------------------------------------------------------------------------|
 B|----1-----1---1-----1-----1---1-----1-----1---1-----1---------1------------|
 G|--0-----0---------0-----0---------0-----0---------0-------0----------------|
 D|3-----3-----3---2-----2-----2---3-----3-----3---2-------2------------------|
 A|------------------------------------------------------0-----0--------------|
 E|---------------------------------------------------------------------------|
 e|---------------------------------------------------------------------------|
 B|----1-----1---1-----1-----1---1-----3-----3---1----------------------------|
 G|--0-----0---------0-----0---------0-----0----------------------------------|
 D|3-----3-----3---2-----2-----2---0-----0-----0------------------------------|
 A|---------------------------------------------------------------------------|
 E|---------------------------------------------------------------------------|

Yes I loved you, as a matter of fact.
Your furs are wrapped up and that?s that.
[Fmaj7]Lover let me please, [C]fall on down your knees.
[Fmaj7]You once made me [C]smile when you [Dm]strayed.
[Fmaj7] The world?s on [C]fire, so... [Fmaj7] The world?s on [C]fire, so...
[Fmaj7] The world?s on [C]fire, so have you [G]heard?
[Fmaj7] The world?s on [C]fire. [Fmaj7] The world?s on [C]fire.
[Fmaj7] The world?s on [C]fire. Have you [G]heard?
[Fmaj7]Lover, have you breached to [C]make for your release? So
[Fmaj7]I?m no longer [C]here by your [Dm]side. What?s to [G]hide?
Outro
[Fmaj7] The world?s on [C]fire.
[Fmaj7] The world?s on [C]fire. (Until I?m ready on
[Fmaj7]Monday) The world?s on [C]fire. (Until I?m ready on
[Fmaj7]Tuesday) The world?s on [C]fire. (Until I?m ready on
[Fmaj7]Wednesday) The world?s on [C]fire. (Until I?m ready on
[Fmaj7]Thursday) The world?s on [C]fire. (Until I?m ready on
[Fmaj7]Friday) The world?s on [C]fire. (Until I?m ready on
[Fmaj7]Saturday) The world?s on [C]fire. (Until I?m ready on
Fmaj7(hold)
Sunday)

Important: The song above is NOT stored on the Chordie server. The original song is hosted at www.azchords.com. Chordie works as a search engine and provides on-the-fly formatting. Chordie does not index songs against artists'/composers' will. To remove this song please click here.

Text color:
Chord color:
Chord grids: 
Font size:    
Page size: 

C Dm Fmaj7 G
Rate #1 of 3 versions

Jango Player

Login - add to songbook

SHARE PAGE  



You need to log in to post comments