Guitar Tabs, Chords and Lyrics
Major upgrade!! After one year development the new version of Chordie is now online! Please give feedback.


Cherub Rock  The Smashing Pumpkins

[Intro Let tbat E string ring] 
[E]  
[Intro riff] 
 
 e|----------------------------|
 B|----------------------------|
 G|---9-\-7-13-----13--9-\-7---|
 D|---x-\-x------------x-\-x---|
 A|---7-\-5-11-h12-11--7-\-5---|
 E|---0-\-0------------0-\-0---|x2

[Intro riff] 
 
 e|-----------|
 B|-----------|
 G|---7-------|
 D|---x---7---|
 A|---5---x---|
 E|---0---5---|

[E riff] 
 
 e|------------------------|
 B|------------------------|
 G|---11--7-13-----13------|
 D|---x---x----------------|
 A|---9---5-11-h12-11------|
 E|---0---0----------------|x2

[Gb]Freak [Ab]out, [Gb]give [Ab]in,
[Esus2]Doesn‚??[D]t matter what you[A] all believ[Gb]e i[E]n[Ab]
[Gb]Stay [Ab]cool,[Esus2] and [D] be somebody‚?[A]?s fool thi[Gb]s y[E]ea[Ab]r
[Gb]‚??Caus[Ab]e they kn[Esus2]ow who i[D]s righteous what i[A]s bold
[C] So I‚??[G]m told
[Cborus] 
[D]Who [A]wants [C]hon[G]ey, as [D]long [A]as there‚??s som[C]e mo[G]ney
[D]Who [A]wants that [C]honey...
 
 e|----------------------------|
 B|----------------------------|
 G|---9-\-7-13-----13--9-\-7---|
 D|---x-\-x------------x-\-x---|
 A|---7-\-5-11-h12-11--7-\-5---|
 E|---0-\-0------------0-\-0---|x1
 e|------------------------|
 B|------------------------|
 G|---11--7-13-----13------|
 D|---x---x----------------|
 A|---9---5-11-h12-11------|
 E|---0---0----------------|x2

[Gb]Hipste[Ab]rs [Gb]unit[Ab]e,
[Esus2]come [D]align for the big [A]fight to rock for [Gb]you[E] -[Ab]
But [Gb]bew[Ab]are [Esus2]all those [D]angels with their [A]wings glued [Gb]on[E] [Ab]
‚??Caus[Gb]e dee[Ab]p dow[Esus2]n we are[D] frightened and we ar[A]e scared
[C] If you don‚??[G]t stare
[Cborus] 
[D]Who [A]wants [C]hon[G]ey, as [D]long [A]as there‚??s som[C]e mo[G]ney
[D]Who [A]wants that [C]honey...
[Bridge] 
[E] [D]Let me o[A]ut[C] [G]
[E]Let... [D]Let me o[A]ut[C] [G]
[E]Let... [D]Let me o[A]ut[C] [G]
[E]Let... [D]Let me o[A]ut[C] [G]
[Interlude] 
 
 e|------------------------------------------------------------|
 B|------------------------------------------------------------|
 G|----9-9---9-9---9---9-9---9-9-9-----13-13---13-13---13---13-|
 D|------------------------------------------------------------|
 A|----7-7---7-7---7---7-7---7-7-7-----11-11---11-11---11---11-|
 E|--0-----0-----0---------0-------0-0-------0-------0---------|
 e|------------------------------------------------------------|
 B|------------------------------------------------------------|
 G|-13---13-13-13-----16-16---16-16---16---16-16---16-16-16----|
 D|------------------------------------------------------------|
 A|-11---11-11-11-----14-14---14-14---14---14-14---14-14-14----|
 E|----0----------0-0-------0-------0------------0----------0--|
 e|---------------------------------------|
 B|---------------------------------------|
 G|---19-19---19-19---21---21-21----------|
 D|--------------------------------x\-x\--|
 A|---17-17---17-17---19---19-19---x\-x\--|
 E|-0-------0-------0------------0-x\-x\--|

[Solo] 
[D] [A] [E]  
[D] [A] [E]  
[D] [A] [E]  
[D] [A] [E] [C] [G]  
[D]Tell me a[A]ll of your [C]secr[G]ets
[D]Cannot [A]help but [C]believe [G]this is true
[D]Tell me a[A]ll of your [C]secr[G]ets
I [D]know I know I [A]know, should have [C]listened when I was t[G]old.
[Cborus] 
[D]Who [A]wants [C]hon[G]ey, as [D]long [A]as there‚??s som[C]e mo[G]ney
[D]Who [A]wants that [C]honey...
[Bridge] 
[E] [D]Let me o[A]ut[C] [G]
[E]Let... [D]Let me o[A]ut[C] [G]
[E]Let... [D]Let me o[A]ut[C] [G]
[E]Let... [D]Let me o[A]ut[C] [G]
 
 e|----------------------------|
 B|----------------------------|
 G|---9-\-7-13-----13--9-\-7---|
 D|---x-\-x------------x-\-x---|
 A|---7-\-5-11-h12-11--7-\-5---|
 E|---0-\-0------------0-\-0---|x2
 e|------------------------|
 B|------------------------|
 G|---11--7-13-----13------|
 D|---x---x----------------|
 A|---9---5-11-h12-11------|
 E|---0---0----------------|x2
 e|------------------------------------------------------------|
 B|------------------------------------------------------------|
 G|----9-9---9-9---9---9-9---9-9-9-----13-13---13-13---13---13-|
 D|------------------------------------------------------------|
 A|----7-7---7-7---7---7-7---7-7-7-----11-11---11-11---11---11-|
 E|--0-----0-----0---------0-------0-0-------0-------0---------|
 e|------------------------------------------------------------|
 B|------------------------------------------------------------|
 G|-13---13-13-13-----16-16---16-16---16---16-16---16-16-16----|
 D|------------------------------------------------------------|
 A|-11---11-11-11-----14-14---14-14---14---14-14---14-14-14----|
 E|----0----------0-0-------0-------0------------0----------0--|
 e|----------------------------|
 B|----------------------------|
 G|---19-19---19-19---9--------|
 D|----------------------------|
 A|---17-17---17-17---7--------|
 E|-0-------0-------0----------| 


Important: The song above is NOT stored on the Chordie server. The original song is hosted at www.azchords.com. Chordie works as a search engine and provides on-the-fly formatting. Chordie does not index songs against artists'/composers' will. To remove this song please click here.

Text color:
Chord color:
Chord grids: 
Font size:    
Page size: 

A Ab C D E Esus2 G Gb
Rate #1 of 15 versions

Jango Player

Login - add to songbook

SHARE PAGE  




You need to log in to post comments