Guitar Tabs, Chords and Lyrics
Major upgrade!! After one year development the new version of Chordie is now online! Please give feedback.


I Am One   The Smashing Pumpkins

 
 e---------------------------------------------------------------0----------
 B------------------0------------------------------------0------------------
 G--------------3------------------------------------3----------------------
 D--------------------------------------------------------------------------
 A----------4------------------------------------4--------------------------
 E--2-2-2--------------------------------2-2-2------------------------------

 


 


 Riff 1


 

 
 ------------------------2---2---------------------------2---4--------------
 4---2-3-4---2-4---4-2-4-2---2---4---2-3-4---2-4---4-2-4-2---4--------------
 4---2-3-4---2-4---4-2-4-0---0---4---2-3-4---2-4---4-2-4-0---2--------------
 2---0-1-2---0-2---2-0-2---------2---0-1-2---0-2---2-0-2--------------------

 


 


 Riff 2 (Those are frets 11, 12, and 14, not frets 1 and then 2)


 

 
 ----------------------------11---11-------------------------------12---14--
 0-12-0-0-12-0-0-12-0-12-0-0-----------0-12-0-0-12-0-0-12-0-12-0-0----------

 


 


 Bridge (That ' means a bend up and the 3532 is a pulled triplet)


 

 
 ------------------------------------------------------
 ----3-2-----3---5---7-5---3532-3-2---3-0-----2--------
 2----------------------------------------------2------
 2-----------------------------------------------------
 0-----------------------------------------------------
 ------------------------------------------------------
 ------------------------------------------------------
 ----3-2-----3---5---7-5---3532-3-5---7-5-----7---7'---
 2-----------------------------------------------------
 2-----------------------------------------------------
 0-----------------------------------------------------
 ------------------------------------------------------

 


 


 End of solo (The , is just a slide down)


 

 
 12---10---9------------------------------------------------------------------
 --------------12---10---9----------------------------------------------------
 ----------------------------11---9---7---6-----------------------------------
 ---------------------------------------------9---7---6-----------------------
 ---------------------------------------------------------9---7---4-----------


Important: The song above is NOT stored on the Chordie server. The original song is hosted at www.azchords.com. Chordie works as a search engine and provides on-the-fly formatting. Chordie does not index songs against artists'/composers' will. To remove this song please click here.

This song is displayed as text-only. Transposing and tuning is only available for chordpro-songs.
Rate #1 of 1 versions

Jango Player

Login - add to songbook

SHARE PAGE  




You need to log in to post comments