Guitar Tabs, Chords and Lyrics
Server problems seems to be fixed. Chordie has been experiencing problems with songs disappearing. These issues now seems to be fixed, but still verifying the fix. If you find anything strange, please email admin@chordie.com.


Tiberius  The Smashing Pumpkins

Intro - Play 2 times
 
 e|--17-------17-------18-------17-------17-------17--------------------------|
 B|o----18-------18-------20-------18-------18-------18----------------------o|
 G|--------19-------19-------19-------19-------19-------17--------------------|
 D|---------------------------------------------------------------------------|
 A|o-------------------------------------------------------------------------o|
 D|---------------------------------------------------------------------------|

*Play this pattern 2 times
[F5] [G5] [D5] [C5]  
 
 e|---------------------------------------------------------------------------|
 B|o-------------------------------------------------------------------------o|
 G|---------------------------------------------------------------------------|
 D|---3-3-3--3-3-3--5-5-5--0-0-0--0-0-0--10-10-10-----------------------------|
 A|o--3-3-3--3-3-3--5-5-5--0-0-0--0-0-0--10-10-10----------------------------o|
 D|---3-3-3--3-3-3--5-5-5--0-0-0--0-0-0--10-10-10-----------------------------|

Verse 1 - *Continue playing the same pattern 4 times
[F5]Us my love, [G5]don't fight. [D5] [C5]Never [F5]leave here [G5]this night.[D5] [C5]
[F5]Words break, [G5]don't fake. [D5] [C5]What is [F5]love if love [G5]obeys? [D5] [C5]Let
Pre - chorus - *Play this pattern 1 time
[Bb5] [A5] [G5]  
 
 e|---------------------------------------------------------------------------|
 B|---------------------------------------------------------------------------|
 G|---------------------------------------------------------------------------|
 D|8-8-8--8-8-8--8-8-8--8-8-8--8-8-8--7-7-7--5-5-5--5-5-5--5-5-5--5-5-5--5-5-5|
 A|8-8-8--8-8-8--8-8-8--8-8-8--8-8-8--7-7-7--5-5-5--5-5-5--5-5-5--5-5-5--5-5-5|
 D|8-8-8--8-8-8--8-8-8--8-8-8--8-8-8--7-7-7--5-5-5--5-5-5--5-5-5--5-5-5--5-5-5|

[C5] [D5]  
 
 e|---------------------------------------------------------------------------|
 B|---------------------------------------------------------------------------|
 G|---------------------------------------------------------------------------|
 D|10-10-10--0----------------------------------------------------------------|
 A|10-10-10--0----------------------------------------------------------------|
 D|10-10-10--0----------------------------------------------------------------|

Bb5 A5 G5 C5 D5(hold)
flee doves in flight. Make me stray from my light. Never leave here softly.
Chorus - *Play verse pattern 4 times
[F5] I've seen the [G5]world u[D5]pon a thousand [C5]dreams.
[F5] Your pyres are [G5]wondering, [D5]can't see what it [C5]means.
[F5] Yet, still I [G5]love you. [D5] Like everything,[C5] it
[F5]goes and [G5]goes. [D5] [C5] It
*Play this during the last line of the chorus
[F5] [G5] [D5] [C5] [D5]  
 
 e|---------------------------------------------------------------------------|
 B|o-------------------------------------------------------------------------o|
 G|---------------------------------------------------------------------------|
 D|---3-3-3--3-3-3--5-5-5--0-0-0--0-0-0--10-10-10--12\------------------------|
 A|o--3-3-3--3-3-3--5-5-5--0-0-0--0-0-0--10-10-10--12\-----------------------o|
 D|---3-3-3--3-3-3--5-5-5--0-0-0--0-0-0--10-10-10--12\------------------------|

[F5]goes and [G5]goes. [D5] [C5] It [D5]goes.
*Do 6 repeats, then play D5-E5-F5-G5
[C5] [D5] [C5] [Eb5] [D5] [D5] [E5] [F5] [G5]  
 
 e||-----------------------||-------------------------------------------------|
 B||o---------------------o||-------------------------------------------------|
 G||-----------------------||-------------------------------------------------|
 D||--10-12-0-0-10-13--0---||-0--2--3--5--------------------------------------|
 A||o-10-12-0-0-10-13--0--o||-0--2--3--5--------------------------------------|
 D||--10-12-0-0-10-13--0---||-0--2--3--5--------------------------------------|

Bridge - *Continue playing the same pattern 2 times with the same amount of repeats
If you break, believe me. If you take, deceive me
to the sound of one clapping hand.
Is your heart so lonely that your own is only
as good as can be had on to mend?
Verse 2 - *Play pattern 2 times
 
 e|--17-------17-------18-------17-------17-------17--------------------------|
 B|o----18-------18-------20-------18-------18-------18----------------------o|
 G|--------19-------19-------19-------19-------19-------17--------------------|
 D|---------------------------------------------------------------------------|
 A|o-------------------------------------------------------------------------o|
 D|---------------------------------------------------------------------------|

Hush my love, don't fight. Never leave here this night.
Chorus - *Play verse pattern 6 times
[F5] I've seen the [G5]world u[D5]pon a thousand [C5]dreams.
[F5] Your pyres are [G5]wondering, [D5]can't see what it [C5]means.
[F5] Yet, still I [G5]love you. [D5] Like everything,[C5] it
[F5]goes and [G5]goes. [D5] [C5] It
[F5]goes and [G5]goes. [D5] [C5] It
[F5]goes and [G5]goes. [D5] [C5]
Pre - chorus - *Play this pattern 1 time
[Bb5] [A5] [G5]  
 
 e|---------------------------------------------------------------------------|
 B|---------------------------------------------------------------------------|
 G|---------------------------------------------------------------------------|
 D|8-8-8--8-8-8--8-8-8--8-8-8--8-8-8--7-7-7--5-5-5--5-5-5--5-5-5--5-5-5--5-5-5|
 A|8-8-8--8-8-8--8-8-8--8-8-8--8-8-8--7-7-7--5-5-5--5-5-5--5-5-5--5-5-5--5-5-5|
 D|8-8-8--8-8-8--8-8-8--8-8-8--8-8-8--7-7-7--5-5-5--5-5-5--5-5-5--5-5-5--5-5-5|

It goes...
[C5]  
 
 e|---------------------------------------------------------------------------|
 B|---------------------------------------------------------------------------|
 G|---------------------------------------------------------------------------|
 D|10-10-10-------------------------------------------------------------------|
 A|10-10-10-------------------------------------------------------------------|
 D|10-10-10-------------------------------------------------------------------| 

Outro chorus - *Play verse pattern 4 times
[F5] I've seen the [G5]world u[D5]pon a thousand [C5]dreams.
[F5] [G5] [D5] I've seen the [C5]world u -
[F5]pon a thousand [G5]dreams. [D5] [C5] It
[F5]goes and [G5]goes. [D5] [C5] It
Outro - *Play pattern 2 times
 
 e|--17-------17-------18-------17-------17-------17--------------------------|
 B|o----18-------18-------20-------18-------18-------18----------------------o|
 G|--------19-------19-------19-------19-------19-------17--------------------|
 D|---------------------------------------------------------------------------|
 A|o-------------------------------------------------------------------------o|
 D|---------------------------------------------------------------------------|

Goes and goes. It goes and goes. It goes.
*This part is optional. It is the same keyboard part from above, only an octave lower.
It may be easier to get to if you are switching between the power chords and the keyboard part.
 
 e|--5-----5-----6-----5-----5-----5------------------------------------------|
 B|o---6-----6-----8-----6-----6-----6---------------------------------------o|
 G|------7-----7-----7-----7-----7-----5--------------------------------------|
 D|---------------------------------------------------------------------------|
 A|o-------------------------------------------------------------------------o|
 D|---------------------------------------------------------------------------|


Important: The song above is NOT stored on the Chordie server. The original song is hosted at www.azchords.com. Chordie works as a search engine and provides on-the-fly formatting. Chordie does not index songs against artists'/composers' will. To remove this song please click here.

Text color:
Chord color:
Chord grids: 
Font size:    
Page size: 

A5 Bb5 C5 D5 E5 Eb5 F5 G5
Rate #1 of 2 versions

Jango Player

Login - add to songbook

SHARE PAGE  



You need to log in to post comments