Guitar Tabs, Chords and Lyrics
Major upgrade!! After one year development the new version of Chordie is now online! Please give feedback.


Then the Morning Comes   Smash Mouth

 
 E ------------------------------------
 B ------------------------------------
 G ------------------------------------
 D ----------2--4--[4]----(4)--2--------
 A -----4--4---------------------4--2--
 E -------------------------------------------
 E ---------------------------------------------------
 B -------------------------------------------
 G -------------------------------------------
 D ---------------2--4--[4]----(4)--2-----------
 A ----4----4--4----------------------4--2-----
 E --------------------------------------------
 E ---------------------------------------------------
 B -------------------------------------------
 G -------------------------------------------
 D ---------------2--4--[4]----(4)--2-----------
 A ----4----4--4----------------------4--2-----
 E --------------------------------------------
 E ---------------------------------------------------
 B -------------------------------------------
 G ------------------4--[3]-------------------
 D ---------------2---------------------------
 A ----4----4--4------------------------------
 E -------------------------------------------

 


 (Chorus)


 

 
 E ----12----12--------11----12--12----------------------
 B ----12----14--------12----14--14----------------------
 G ----13----14--------11----14--14----------------------
 D ----14--------------13--------------------------------
 A --------------------14--------------------------------
 E ------------------------------------------------------
 E ----12----12--------11----12--12----------------------
 B ----12----14--------12----14--14----------------------
 G ----13----14--------11----14--14----------------------
 D ----14--------------13--------------------------------
 A --------------------14--------------------------------
 E ------------------------------------------------------
 E ----12----12--------11----12--12----------------------
 B ----12----14--------12----14--14----------------------
 G ----13----14--------11----14--14----------------------
 D ----14--------------13--------------------------------
 A --------------------14--------------------------------
 E ------------------------------------------------------

 


 (â??...then the morning comes...â??)


 

 
 E ---------------------------------------------------
 B -------------------------------------------
 G -------------------------------------------
 D ---------------2--4--[4]----(4)--2-----------
 A ----4----4--4----------------------4--2-----
 E --------------------------------------------
 E ---------------------------------------------------
 B -------------------------------------------
 G -------------------------------------------
 D ---------------2--4--[3]--------------------
 A ----4----4--4------------------------------
 E -------------------------------------------

 


 


 (Chorus)


 

 
 E ----12----12--------11----12--12----------------------
 B ----12----14--------12----14--14----------------------
 G ----13----14--------11----14--14----------------------
 D ----14--------------13--------------------------------
 A --------------------14--------------------------------
 E ------------------------------------------------------
 E ----12----12--------11----12--12----------------------
 B ----12----14--------12----14--14----------------------
 G ----13----14--------11----14--14----------------------
 D ----14--------------13--------------------------------
 A --------------------14--------------------------------
 E ------------------------------------------------------
 E ----12----12--------11----12--12----------------------
 B ----12----14--------12----14--14----------------------
 G ----13----14--------11----14--14----------------------
 D ----14--------------13--------------------------------
 A --------------------14--------------------------------
 E ------------------------------------------------------

 


 (â??...then the morning comes...â??)


 

 
 E ---------------------------------------------------
 B -------------------------------------------
 G -------------------------------------------
 D ---------------2--4--[4]----(4)--2-----------
 A ----4----4--4----------------------4--2-----
 E --------------------------------------------
 E ---------------------------------------------------
 B -------------------------------------------
 G -------------------------------------------
 D ---------------2--4--[3]--------------------
 A ----4----4--4------------------------------
 E -------------------------------------------

 


 


 (â??... And when it comes, moves so slow...â??)


 

 
 E ----11------10-------------------------------
 B ----12------ 8-------------------------------
 G ----11------10-------------------------------
 D ------------ 9--------------------------------
 A ----11---------------------------------------
 E ---------------------------------------------

 


 (Guitar solo)


 

 
 E ----7--7--[7]--6--6--[6]--4----3--4--3--4------
 B ----------------------------------------------
 G ----------------------------------------------
 D ----------------------------------------------
 A ----------------------------------------------
 E ----------------------------------------------
 E ---------------------------------------------------------------
 B ---------------------------------------------------------------
 G ---------------------------------------------------------------
 D -----------2--4--[4]--4--4--4--4--4--4--(4)--2------------------
 A ----4--4-----------------------------------------4-------------
 E ---------------------------------------------------------------
 E ----7--7--[7]--6--6--[6]--4----3--4--3--4------
 B ----------------------------------------------
 G ----------------------------------------------
 D ----------------------------------------------
 A ----------------------------------------------
 E ----------------------------------------------
 E ---------------------------------------------------
 B -------------------------------------------
 G ------------------4--[3]-------------------
 D ---------------2---------------------------
 A ----4----4--4------------------------------
 E -------------------------------------------

 


 


 (Chorus)


 

 
 E ----12----12--------11----12--12----------------------
 B ----12----14--------12----14--14----------------------
 G ----13----14--------11----14--14----------------------
 D ----14--------------13--------------------------------
 A --------------------14--------------------------------
 E ------------------------------------------------------
 E ----12----12--------11----12--12----------------------
 B ----12----14--------12----14--14----------------------
 G ----13----14--------11----14--14----------------------
 D ----14--------------13--------------------------------
 A --------------------14--------------------------------
 E ------------------------------------------------------
 E ----12----12--------11----12--12----------------------
 B ----12----14--------12----14--14----------------------
 G ----13----14--------11----14--14----------------------
 D ----14--------------13--------------------------------
 A --------------------14--------------------------------
 E ------------------------------------------------------

 


 


 


 


 Key This is right, unlike that other cr*ppy one thatâ??s posted.


 [ ] = string bend


 ( ) = ghost bend (play an already bent string)


 


 


 


 


 


 


 Intro


 

 
 E ------------------------------------
 B ------------------------------------
 G ------------------------------------
 D ----------2--4--[4]----(4)--2--------
 A -----4--4---------------------4--2--
 E -------------------------------------------
 E ---------------------------------------------------
 B -------------------------------------------
 G -------------------------------------------
 D ---------------2--4--[4]----(4)--2-----------
 A ----4----4--4----------------------4--2-----
 E --------------------------------------------
 E ---------------------------------------------------
 B -------------------------------------------
 G -------------------------------------------
 D ---------------2--4--[4]----(4)--2-----------
 A ----4----4--4----------------------4--2-----
 E --------------------------------------------
 E ---------------------------------------------------
 B -------------------------------------------
 G ------------------4--[3]-------------------
 D ---------------2---------------------------
 A ----4----4--4------------------------------
 E -------------------------------------------

 


 (Chorus)


 

 
 E ----12----12--------11----12--12----------------------
 B ----12----14--------12----14--14----------------------
 G ----13----14--------11----14--14----------------------
 D ----14--------------13--------------------------------
 A --------------------14--------------------------------
 E ------------------------------------------------------
 E ----12----12--------11----12--12----------------------
 B ----12----14--------12----14--14----------------------
 G ----13----14--------11----14--14----------------------
 D ----14--------------13--------------------------------
 A --------------------14--------------------------------
 E ------------------------------------------------------
 E ----12----12--------11----12--12----------------------
 B ----12----14--------12----14--14----------------------
 G ----13----14--------11----14--14----------------------
 D ----14--------------13--------------------------------
 A --------------------14--------------------------------
 E ------------------------------------------------------

 


 (â??...then the morning comes...â??)


 

 
 E ---------------------------------------------------
 B -------------------------------------------
 G -------------------------------------------
 D ---------------2--4--[4]----(4)--2-----------
 A ----4----4--4----------------------4--2-----
 E --------------------------------------------
 E ---------------------------------------------------
 B -------------------------------------------
 G -------------------------------------------
 D ---------------2--4--[3]--------------------
 A ----4----4--4------------------------------
 E -------------------------------------------

 


 


 (Chorus)


 

 
 E ----12----12--------11----12--12----------------------
 B ----12----14--------12----14--14----------------------
 G ----13----14--------11----14--14----------------------
 D ----14--------------13--------------------------------
 A --------------------14--------------------------------
 E ------------------------------------------------------
 E ----12----12--------11----12--12----------------------
 B ----12----14--------12----14--14----------------------
 G ----13----14--------11----14--14----------------------
 D ----14--------------13--------------------------------
 A --------------------14--------------------------------
 E ------------------------------------------------------
 E ----12----12--------11----12--12----------------------
 B ----12----14--------12----14--14----------------------
 G ----13----14--------11----14--14----------------------
 D ----14--------------13--------------------------------
 A --------------------14--------------------------------
 E ------------------------------------------------------

 


 (â??...then the morning comes...â??)


 

 
 E ---------------------------------------------------
 B -------------------------------------------
 G -------------------------------------------
 D ---------------2--4--[4]----(4)--2-----------
 A ----4----4--4----------------------4--2-----
 E --------------------------------------------
 E ---------------------------------------------------
 B -------------------------------------------
 G -------------------------------------------
 D ---------------2--4--[3]--------------------
 A ----4----4--4------------------------------
 E -------------------------------------------

 


 


 (â??... And when it comes, moves so slow...â??)


 

 
 E ----11------10-------------------------------
 B ----12------ 8-------------------------------
 G ----11------10-------------------------------
 D ------------ 9--------------------------------
 A ----11---------------------------------------
 E ---------------------------------------------

 


 (Guitar solo)


 

 
 E ----7--7--[7]--6--6--[6]--4----3--4--3--4------
 B ----------------------------------------------
 G ----------------------------------------------
 D ----------------------------------------------
 A ----------------------------------------------
 E ----------------------------------------------
 E ---------------------------------------------------------------
 B ---------------------------------------------------------------
 G ---------------------------------------------------------------
 D -----------2--4--[4]--4--4--4--4--4--4--(4)--2------------------
 A ----4--4-----------------------------------------4-------------
 E ---------------------------------------------------------------
 E ----7--7--[7]--6--6--[6]--4----3--4--3--4------
 B ----------------------------------------------
 G ----------------------------------------------
 D ----------------------------------------------
 A ----------------------------------------------
 E ----------------------------------------------
 E ---------------------------------------------------
 B -------------------------------------------
 G ------------------4--[3]-------------------
 D ---------------2---------------------------
 A ----4----4--4------------------------------
 E -------------------------------------------

 


 


 (Chorus)


 

 
 E ----12----12--------11----12--12----------------------
 B ----12----14--------12----14--14----------------------
 G ----13----14--------11----14--14----------------------
 D ----14--------------13--------------------------------
 A --------------------14--------------------------------
 E ------------------------------------------------------
 E ----12----12--------11----12--12----------------------
 B ----12----14--------12----14--14----------------------
 G ----13----14--------11----14--14----------------------
 D ----14--------------13--------------------------------
 A --------------------14--------------------------------
 E ------------------------------------------------------
 E ----12----12--------11----12--12----------------------
 B ----12----14--------12----14--14----------------------
 G ----13----14--------11----14--14----------------------
 D ----14--------------13--------------------------------
 A --------------------14--------------------------------
 E ------------------------------------------------------


Important: The song above is NOT stored on the Chordie server. The original song is hosted at www.azchords.com. Chordie works as a search engine and provides on-the-fly formatting. Chordie does not index songs against artists'/composers' will. To remove this song please click here.

This song is displayed as text-only. Transposing and tuning is only available for chordpro-songs.
Rate #1 of 2 versions

Login - add to songbook

SHARE PAGE  




You need to log in to post comments