Guitar Tabs, Chords and Lyrics
Server problems seems to be fixed. Chordie has been experiencing problems with songs disappearing. These issues now seems to be fixed, but still verifying the fix. If you find anything strange, please email admin@chordie.com.


Waste  Smash Mouth

Smash Mouth - Waste
Great song, one of my favorites, finally tabbed!
CHORDS:
 
 -------

B ([EADGBE]x2444x) Am7 ([EADGBE]x02013)
F#m (244222) D* (x54035)
Em7 (022030) G* (3x0002)
A7 (x02020) F#* (244300)
E* (054032)
Great song by a great band! This is the first non-happy song I've
heard from them. Like with all their songs, you have to tune down
one note to play along to the CD.
VERSE 1:
 
 --------

[B] I'm lookin' at my [F#m]watch
[Em7] At all the time that's been [A7]stolen
[B] When I was carrying [F#m]you
[Em7] It seems I've tripped and I've [A7]fallen
VERSE 2: []
 
 --------

Don't want no one to ache
Oh to be drunk and forgetful
To get out of this unscathed
Oh to be free and inhuman
CHORUS: [see tab below]
 
 -------

E* A7
Some, may say
E* Am7
I love, to play
D* G* F#*
When the chance is there to take
CHORUS-TAB:
 
 -----------

E* A7 E* Am7
 
 E|---------------------------------------2--------------3--
 B|--------3--------------2---------------3------------1-1--
 G|------0--------------0---------------0------------0------
 D|----4--------0-----2---------------4---------------------
 A|-----------2-----0---------0h2------------------0-------
 E|-0-------------------------------0---------0-------------

D* G* F*
 
 E-------------5-------------2---------------0-0-|
 B-----------3-3---------------0-------------0-0-|
 G--------------------------------------3-3--3-3-| <- strum that chord
 D---------4--------4------0---------4--4-4--4-4-| a few more times
 A-0---3/5----------5----------------4--4-4--4-4-|
 E-----------------------3-----------2--2-2--2-2-|

[the second and third time you play the chorus tab in the song it
might have some tiny variations, but I don't wanna bother to tab
them out, it's basically the same.]
VERSE 3: []
 
 --------

I'm moppin' up the floor
From messy recipes of romance
I'm packin' up the pots
Too many cooks in the kitchen
CHORUS: []
 
 -------

Some, may say
I love, to let
a good thing go to waste
I let it go to waste
GUITAR-SOLO:
 
 ------------

[B] [F#m] [Em7] [A7]  
 
 E|-----------------------------------------------
 B|-----------------------------------------------
 G|-----------------------------------------------
 D|-1---1-2-4------------------------------------- h = hammer-on
 A|-----------2h4-0-----0-0h2------2-2-4-5-4/5-4-- / = slide up
 E|---------------------------0-------------------

[B] [F#m] [Em7] [A7]  
 
 E-------------------------------3-----3-5-7-7-5--------5----|
 B-----4----4-5-7-4h5-2--------------------------------------|
 G-----4----4-6-8-4h6-2------2/4-------4-6-7-7-6----4/6---6--|
 D-----------------------------------------------------------|
 A--0--------------------------------------------------------|
 E-----------------------------------------------------------|

BRIDGE:
 
 -------

[B]Let a good thing [F#m]go to waste a [Em7]good thing go to [A7]waste
[B]Let a good thing [F#m]go to waste a [Em7]good thing go to [A7]waste
[PLAY CBORUS-TAB ONCE] 
VERSE 4:
 
 --------

[B] I'm lookin' at my [F#m]watch
[Em7] At all the time that's been [A7]stolen
[B] When I was carrying [F#m]you
[Em7] It seems I've tripped and I've [A7]fallen

Important: The song above is NOT stored on the Chordie server. The original song is hosted at www.azchords.com. Chordie works as a search engine and provides on-the-fly formatting. Chordie does not index songs against artists'/composers' will. To remove this song please click here.

Text color:
Chord color:
Chord grids: 
Font size:    
Page size: 

A7 B Em7 F#m
Rate #1 of 7 versions

Jango Player

Login - add to songbook

SHARE PAGE  



You need to log in to post comments