Guitar Tabs, Chords and Lyrics
Update 25:10. 13:00. Site is back up running again. Songbooks are recovered. Woring on getting search back up..


Incinerate  Sonic Youth

 
 -------------------------------------------------------------------------------

Incinerate ?? Sonic Youth
 
 -------------------------------------------------------------------------------

I Realy love this song by sonic, but its hard to play, when you have to tune in a
way, and have another guitar player. So i tabbed it, as if you were 1 guitarplayer.
This Tab File contains 2 versions, one in alternate tuning, and one in standard.
Version 1 ---!!!!
Tuning: Eb,Bb(A#),Eb, G, B, e,
intro
 
 e|---------------------------------------------------------------------------|
 B|---------------------------------------------------------------------------|
 G|---------------------------------------------------------------------------|
 D#-0-------------------------------------------------------------------------|x2
 A#-0-strum and let ring------------------------------------------------------|
 Eb-0-------------------------------------------------------------------------|
 e|---------------------------------------------------------------------------|
 B|---------------------------------------------------------------------------|
 G|----------------------------12-12-10-12--15-15-12-12-10-12-----------------|
 D#-----0--0-------0----0-----------------------------------------------------|
 A#---0---0--0---0--0---0-strum while plaing the lead line--------------------|
 Eb-0----0----0-0----0--0-----------------------------------------------------|
 e|---------------------------------------------------------------------------|
 B|---------------------------------------------------------------------------|
 G|-----12-12-10-12--15-15-12-12-10-10-8----12-12-10-12--15-15-12-12-10-12----|
 D#-0------------------------------------0------------------------------------|
 A#-0------------------------------------0------------------------------------|
 Eb-0------------------------------------0------------------------------------|
 e|---------------------------------------------------------------------------|
 B|---------------------------------------------------------------------------|
 G|----5-5--7-7--8-8--7-7-7---------------------------------------------------|
 D#-0-------------------------------------------------------------------------|
 A#-0-------------------------------------------------------------------------|
 Eb-0-------------------------------------------------------------------------|
 e|---------------------------------------------------------------------------|
 B|----8-8-6-8--11-11-8-8-6-6-8-----8-8-6-8--11-11-13-13-11-11-8--------------|
 G|-0----------------------------0--------------------------------------------|
 D#-0----------------------------0--------------------------------------------|
 A#-0----------------------------0--------------------------------------------|
 Eb-0----------------------------0--------------------------------------------|
 e|---------------------------------------------------------------------------|
 B|----8-8-6-8--11-11-8-8-6-6-8-----1--3-3-4-4-3-3-3p4------------------------|
 G|-0----------------------------0--------------------------------------------|
 D#-0----------------------------0--------------------------------------------|
 A#-0----------------------------0--------------------------------------------|
 Eb-0----------------------------0--------------------------------------------|

Vers ?? keep repeating
 
 e|---------------------------------------------------------------------------|
 B|---------------------------------------------------------------------------|
 G|---5-5-5---7-7-7--8-8-8--5-5-6-5-------------------------------------------|
 D#---5-5-5---7-7-7--7-7-7--5-5-5-5-------------------------------------------|
 A#---5-5-5---7-7-7--5-5-5--5-5-5-5-------------------------------------------|
 Eb---5-5-5---7-7-7---------5-5-5-5-------------------------------------------|

brigde
 
 e|---------------------------------------------------------------------------|
 B|---------------------------------------------------------------------------|
 G|------0--3--5--7--5-3-5--3-0-3--0-------0--3--5--7--5-3-5--3-0-3--0--------|
 D#---------------------------------------------------------------------------|x2
 A#---2---------------------------------2-------------------------------------|
 Eb---------------------------------------------------------------------------|

Chorus
 
 e|---------------------------------------------------------------------------|
 B|---------------------------------------------------------------------------|
 G|---5-5-5-5-5-5---7-7-7-7-7-7----8-7-8-7-8-7-------or---7-7-7-7--7-8-7------|
 D#---5-5-5-5-5-5---7-7-7-7-7-7----7-7-7-7-7-7-9-7---or---7-7-7-9--7-7-7-9----|
 A#---5-5-5-5-5-5---7-7-7-7-7-7----7-7-7-7-7-7-7-7---or---7-9-7-7--7-7-7-7----|
 Eb---5-5-5-5-5-5---7-7-7-7-7-7----7-7-7-7-7-7-7-7--------7-7-7-7--7-7-7-7----|

Back to intro
Midbrigde
 
 e|---------------------------------------------------------------------------|
 B|---------------------------------------------------------------------------|
 G|---8--12-13-15-13-12---8--12-13-15-13-12-----------------------------------|
 D#-0-------------------0-----------------------------------------------------|
 A#-0-------------------0-----------------------------------------------------|
 Eb-0-------------------0-----------------------------------------------------|

Solo
 
 e|-----------------------------------------------------------------------------|
 B|-----------------------------------------------------------------------------|
 G|-0--0-0-0-0-0-0-0--2-2-2-2-2-2-2-2--3-3-3-3-3-3-3-3--5-5-5-5-5-5-5-5-5-5-----|
 D#-0---------------------------------------------------------------------------|
 A#-0??keep-strumin-the-lowest-strings-------------------------------------------|
 Eb-0---------------------------------------------------------------------------|
 e|---------------------------------------------------------------------------|
 B|---------------------------------------------------------------------------|
 G|-7-7-7-7-7-7-7-7--8-8-8-8-8-8-8-8-8---12-12-15-12-12-15--12-12-15-12-12-15-|
 D#---------------------------------------------------------------------------|
 A#---------------------------------------------------------------------------|
 Eb---------------------------------------------------------------------------|
 e|---------------------------------------------------------------------------|
 B|------------------------------------------------------------19v-~19v-19v---|
 G|-17-17-19-17-17-17-17-19-17-17--20-20-20-20-20-20-20-20-20--0----0---0-----|
 D#---------------------------------------------------------------------------|
 A#---------------------------------------------------------------------------|
 Eb---------------------------------------------------------------------------|
 e|-----------------------------------------------------------------------------|
 B|-----------------------------------------------------------------------------|
 G|-0---------------------------------------------------------------------------|
 D#-0---------------------------------------------------------------------------|x2
 A#-0??hold-with-distortion------------------------------------------------------|
 Eb-0---------------------------------------------------------------------------|

Back to intro
Last Verse
 
 e|---------------------------------------------------------------------------|
 B|---------------------------------------------------------------------------|
 G|--------5-----------7-------8---5------7-----------------------------------|
 D#-----5----5------7----7------------4-----7---------------------------------|
 A#--5-----------7----------------------------7-------------------------------|
 Eb--5-----------7------------------------------------------------------------|

End on the bridge
Version 2 --- !!! for standard tuning. It have the same tune as the record, unless you
it 1 step down
STANDARD TUNING: E,A,D,G,B,e
intro
 
 e|-----------------------------------------------------------------------------|
 B|-----------------------------------------------------------------------------|
 G|------13-13-11-13--16-16-13-13-11-13-----13-13-11-13??16-16-13-13-11-9--------|
 D|-----------------------------------------------------------------------------|
 A|-----------------------------------------------------------------------------|
 E|--0----------------------------------0---------------------------------------|
 e|---------------------------------------------------------------------------|
 B|---------------------------------------------------------------------------|
 G|------13-13-11-13--16-16-13-13-11-13------6-6--8-8--9-9--8-8-6-------------|
 D|---------------------------------------------------------------------------|
 A|---------------------------------------------------------------------------|
 E|--0------------------------------------------------------------------------|

Vers
[A] [B] [E] [B] [Bsus]  
 
 e|-----------------------------------------------------------------------------|
 B|--------------------------------------9--------------------------------------|
 G|------6------------------8------------9----------8----------9-------8--------|
 D|------7------------------9------------9----------9----------9-------9--------|
 A|------7------------------9------------7----------9----------9-------9--------|
 E|------5------------------7-----------------------7----------7-------7--------|

Brigde
[C#]  
 
 e|-----------------------------------------------------------------------------|
 B|-----------------------------------------------------------------------------|
 G|-------6---------------------------------------------------------------------|
 D|-------6??keep strumin--------------------------------------------------------|
 A|-------4---------------------------------------------------------------------|
 E|-----------------------------------------------------------------------------|

Chorus
[A] [B]  
 
 e|---------------------------------------------------------------------------|
 B|---------------------------------------------------------------------------|
 G|--------6---------------------------------8------9-8-9-8-9-8---------------|
 D|--------7---------------------------------9------------------11-9----------|
 A|--------7---------------------------------9--------------------------------|
 E|--------5---------------------------------7--------------------------------|

Thats it, hope you will enjoy
| / slide up
| \ slide down
| h hammer-on
| p pull-off
| ~ vibrato
| + harmonic
| x Mute note
===============================================================================

Important: The song above is NOT stored on the Chordie server. The original song is hosted at www.azchords.com. Chordie works as a search engine and provides on-the-fly formatting. Chordie does not index songs against artists'/composers' will. To remove this song please click here.

Text color:
Chord color:
Chord grids: 
Font size:    
Page size: 

A B Bsus C# E
Rate #4 of 4 versions

Jango Player

Login - add to songbook

SHARE PAGE  



You need to log in to post comments