Guitar Tabs, Chords and Lyrics
Server problems seems to be fixed. Chordie has been experiencing problems with songs disappearing. These issues now seems to be fixed, but still verifying the fix. If you find anything strange, please email admin@chordie.com.


Promises Broken  Soul Asylum

[Intro] 
 
 e|-------------------------|??---0----0--??-0??-????--0------|----4----4----4------4------|
 B|-------------------------|??---0----0??---0h2????--2p0----|----4----4----4------4------|
 G|-------------------------|??---1??---1??---1??-????--1------|----4----4----4h6----6p4----|
 D|----------2--4--2--------|--??-2??---2??---2??-????--2------|----6----6----6------6------|
 A|----2--4------------4----|??---2??---2??---2??-????--2------|----6----6----6------6------|
 E|-------------------------|??---0??---0??---0??-????--0------|----4----4----4------4------|
 e|----2----2----2------2------|----2---------------|---------------------------|
 B|----2----2----2------2------|----2---------------|----5p4--------------------|
 G|----2----2----2h4----2h4----|----4---------------|--------4----6p4-----------|
 D|----4----4----4------4------|----4---------------|----------4-------4--2-----|
 A|----4----4----4------4------|----2---------------|---------------------------|
 E|----2----2----2------2------|----2---------------|---------------------------|

[Verse] 
[E]Streets are filled with broken [A]glass
You get buried by the [Am]past
Give me just a little [E]taste
Lay this mask to [B]waste
Take me [E]home
(Strum pattern in between verses)
 
 e|----0----0----0---0----|----0----0----0---0----|
 B|----0----0----0---0----|----0----0----0---0----|
 G|----1----1----1---1----|----1----1----1---1----|
 D|----2----2----2---2----|----2----2----2---2----|
 A|----2----2----0h2-0h2--|----2----2----0h2-0h2--|
 E|----0----0----0---0----|----0----0----0---0----|

[E]My mind is racing take me [A]home
My body's aching so [Am]alone
I'll make you want to stay with [E]me
Befriended by the [B]enemy
One more [E]time
[Cborus] 
[E]Every little thing about this tells me
[G#m]Nothing out there is ever gonna help me
[F#m]All these words that I hear spoken[B]
Just promises broken [E]now
 
 e|----0----0----0---0----|----0----0----------------|
 B|----0----0----0---0----|----0----0----------------|
 G|----1----1----1---1----|----1----1----------------|
 D|----2----2----2---2----|----2----2-------------0--|
 A|----2----2----0h2-0h2--|----2----2----3--2--0-----|
 E|----0----0----0---0----|----0----0----------------|

{Bridge]
[G]Looking outside from my window sill
[C]Throw another coin in the wishing well
You'll [G]never find what you're [C]looking for
[A]15 [D]miles
Your [A]dim light shines
From so [D]far away
[B]Your sad [E]smile, is [B]all I see
[E]When I say...
[Cborus] 
[E]Every little thing about this tells me
[G#m]Nothing out there is ever gonna help me
[F#m]All these words that I hear spoken[B]
Just promises broken n[E]ow
(Strum pattern in between verses)
 
 e|----0----0----0---0----|----0----0----0---0----|
 B|----0----0----0---0----|----0----0----0---0----|
 G|----1----1----1---1----|----1----1----1---1----|
 D|----2----2----2---2----|----2----2----2---2----|
 A|----2----2----0h2-0h2--|----2----2----0h2-0h2--|
 E|----0----0----0---0----|----0----0----0---0----|

[Verse] 
[E]From the hotel [A]satellite
Don't look like you're livin' [Am]right
(2nd guitar lead fill)
 
 e|----8-----------|
 B|-------10-------|
 G|-----------9----|
 D|----------------|
 A|----------------|
 E|----------------|

Here's a deal you can't [E]refuse
You ain't got as much to [B]lose
[E]Can you tell your troubles to
[G#m]Someone who won't laugh at you
F#m.
It's alright
 
 e|------------------------------------------------|
 B|------------------------------------------------|
 G|------------------------------------------------|
 D|----------2-----2----4--2--4b(6)br-4----2-------|
 A|----2--4-----4-----------------------------4----|
 E|------------------------------------------------|

[E]And as I watch you walk away
[G#m]Hope a part of you will stay
[F#m]It's alright
 
 e|-----------------------------------------------------|
 B|------------------9----------------------------------|
 G|-----------9---------11--9--11b(13)--11--9--9--------|
 D|----9--11-----11-------------------------------11----|
 A|-----------------------------------------------------|
 E|-----------------------------------------------------|

[Cborus] 
[E]Every little thing about this tells me
[G#m]Nothing out there is ever gonna help me
[F#m]All these words that I hear spoken[B]
Just promises broken [E]now
(2nd guitar plays last E chord as;)
 
 e|----7----|
 B|----9----|
 G|----9----|
 D|----9----|
 A|----7----|
 E|---------| 


Important: The song above is NOT stored on the Chordie server. The original song is hosted at www.azchords.com. Chordie works as a search engine and provides on-the-fly formatting. Chordie does not index songs against artists'/composers' will. To remove this song please click here.

Text color:
Chord color:
Chord grids: 
Font size:    
Page size: 

A Am B C D E F#m G G#m
Rate #1 of 6 versions

Login - add to songbook

SHARE PAGE  




You need to log in to post comments