Guitar Tabs, Chords and Lyrics
Server problems seems to be fixed. Chordie has been experiencing problems with songs disappearing. These issues now seems to be fixed, but still verifying the fix. If you find anything strange, please email admin@chordie.com.


The Sun Maid  Soul Asylum

Soul Asylum
"The Sun Maid" from Grave Dancers Union album
One of the most beautiful songs by Soul Asylum. Very intelligent text of the song.
very simple piece of music but if you look deeper into the lyrics you will see sad story
disregarding and loneliness.
I tabbed this songs listening to the acoustic concert of Dave Pirner and Dan Murphy on
band. Many thanks to him for putting this concert on the internet !! Enjoy this song.
for Your comments/suggestions.
[C]Tell me [F]how you [G]get that [C]shine
 
 -------0-----------1----------3----------0--------------|
 ----------1-----------1----------0----------0H1---------|
 ----0------------2----------0---------0-----------------|
 --------------------------------------------------------|
 -3----------------------------------3-------------------|
 -------------1-----------3------------------------------|

[Am]You must [D]polish [G]all the time
 
 ------0----------2H3-------------3-------------------|
 ---------1-----------3------3-------3----------------|
 ----2----------2----------------------0--------------|
 ------------0---------------------------0------------|
 --0--------------------------------------------------|
 -------------------------3-----3---------------------|

[C]Though [F]I know your [G]job is [C]thankless
 
 -------0-----------1----------3----------0--------------|
 ----------1-----------1----------0----------0H1---------|
 ----0------------2----------0---------0-----------------|
 --------------------------------------------------------|
 -3----------------------------------3-------------------|
 -------------1-----------3------------------------------|

[Am]They will [D]thank you [G]up in heaven
 
 ------0----------2H3-------------3-----------------3----------|
 ---------1-----------3------3-------3---------3-------3-------|
 ----2----------2----------------------0------------------0----|
 ------------0---------------------------0------------------0--|
 --0-----------------------------------------------------------|
 -------------------------3-----3-----------3-----3------------|

Chorus:
[G]Oh, the sun maid Looking for the shade
 
 ----------3----------------3---------------3------------------|
 ------------3----------------3---------------3----------------|
 --------------0----------------0---------------0--------------|
 ---0-2-3-----------------------------0-2-3--------------------|
 -3------------------0-2-3----------3-----------------0-2-3----|
 ------------------3--------------------------------3----------|

Though they say she's not too bright
She takes care of all the light
Without you it's cold and stark
We would all be in the dark
Chorus:
Without the sun maid
She never gets paid
Searching for the shade
Oh the sun maid
[C] [F] [G] [C]  
[Am] [D] [G]  
You are so taken for granted
With each and every seed that's planted
And the earth is so demanding
All the young girls are out tanning
Chorus:
With the sun maid
She's such an old maid
She never gets laid
Oh the sun maid
[C]Now you're [F]tired, [G]your day is [C]over
 
 -0-----------1---------3-------------0------|
 -1-----------1---------0-------------1------|
 -0-----------2---------0-------------0------|
 -2-----------3---------0-------------2------|
 -3-----------3---------2-------------3------|
 -0-----------1---------3-------------0------|

[Am]Now the [D]moon is [G]one day older
 
 ------0----------2H3-------------3-----------------3----------|
 ---------1-----------3------3-------3---------3-------3-------|
 ----2----------2----------------------0------------------0----|
 ------------0---------------------------0------------------0--|
 --0-----------------------------------------------------------|
 -------------------------3-----3-----------3-----3------------|

Ending:
 
 ----------3----------------3---------------3------------------|
 ------------3----------------3---------------3----------------|
 --------------0----------------0---------------0--------------|
 ---0-2-3-----------------------------0-2-3--------------------|
 -3------------------0-2-3----------3-----------------0-2-3----|
 ------------------3--------------------------------3----------|

Soul Asylum Forever !!!!!
oxygen909
azyl duszy

Important: The song above is NOT stored on the Chordie server. The original song is hosted at www.azchords.com. Chordie works as a search engine and provides on-the-fly formatting. Chordie does not index songs against artists'/composers' will. To remove this song please click here.

Text color:
Chord color:
Chord grids: 
Font size:    
Page size: 

Am C D F G
Rate #1 of 13 versions

Jango Player

Login - add to songbook

SHARE PAGE  




You need to log in to post comments