Guitar Tabs, Chords and Lyrics
Major upgrade!! After one year development the new version of Chordie is now online! Please give feedback.


Herzklopfen  Spider Murphy Gang

(Verse)
[C] [G]  
 
 E|---------------------------------|-0-----------------------0---1---|-------------------------0-------|
 B|-------------------------1---3---|---------------------4-----------|-3-------------------------------|
 G|-----0-------0-------0-----------|-----0-------0-----------0-------|-----0-------0-------0-------0---|
 D|---------2---------------2-------|---------2-----------------------|---------0-----------------------|
 A|-3-------------------------------|-3-------------------------------|-----------------2---------------|
 E|-----------------3---------------|-----------------3---------------|-3-------------------------------|
 Ich hab' so He- e- e- e- erz- Herz-
 Ich hab' so He- e- e- e- erz- Herz-

[C]  
 
 E|-0-------------------------------|---------------------------------|-0-----------------------0---1---|
 B|-------------1-------------------|-------------------------1---3---|---------------------4-----------|
 G|-----0---------------0-------0---|-----0-------0-------0-----------|-----0-------0-------------------|
 D|---------2---------------2-------|---------2---------------2-------|---------2---------------2-------|
 A|-3-------------------------------|-3-------------------------------|-3-------------------------------|
 E|-----------------3---------------|-----------------3---------------|-----------------3---------------|

klop- fen, Mir tut mein He- e- e- e-
klop- fen, Mir tut mein He- e- e- e-
[G] [C]  
 
 E|-------------------------0-------|---------------------------------|---------------------------------|
 B|-3-------------------------------|-1-------------------------------|-------------------------1---3---|
 G|-----0-------0-------0-------0---|-----0-------0-------0-------0---|-----0-------0-------0-----------|
 D|---------0---------------0-------|---------2---------------2-------|---------2---------------2-------|
 A|-----------------2---------------|-3-------------------------------|-3-------------------------------|
 E|-3-------------------------------|-----------------3---------------|-----------------3---------------|

erz so weh! Ich hab' so
erz so weh! Drum nehm' ich
[G] [C]  
 
 E|-0-----------------------0---1---|-------------------------0-------|-0-------------------------------|
 B|---------------------4-----------|-3-------------------------------|-------------1-------------------|
 G|-----0-------0-----------0-------|-----0-------0-------0-------0---|-----0---------------0-------0---|
 D|---------2-----------------------|---------0-----------------------|---------2---------------2-------|
 A|-3-------------------------------|-----------------2---------------|-3-------------------------------|
 E|-----------------3---------------|-3-------------------------------|-----------------3---------------|
 He- e- e- e- erz- Herz- klop- fen,
 He- e- e- e- erz- Herz- trop- fen, 

[G]  
 
 E|---------------------------------|-0-----------------------0---1---|-------------------------0-------|
 B|-------------------------1---3---|---------------------4-----------|-3-------------------------------|
 G|-----0-------0-------0-----------|-----0-------0-------------------|-----0-------0-------0-------0---|
 D|---------2---------------2-------|---------2---------------2-------|---------0---------------0-------|
 A|-3-------------------------------|-3-------------------------------|-----------------2---------------|
 E|-----------------3---------------|-----------------3---------------|-3-------------------------------|

Mir tut mein He- e- e- e- erz so
dann tut das He- e- e- e- erz mir nicht mehr
[C]  
 
 E|---------------------------------|
 B|-1-------------------------------|
 G|-----0-------0-------0-------0---|
 D|---------2---------------2-------|
 A|-3-------------------------------|
 E|-----------------3---------------|

weh.
weh.
(Chorus)
C F (bar)
 
 E|-------------------------0-------|-1-------1-------------------1---|-----1-----------------------0---|
 B|---------------------------------|-----------------1-------3-------|-----------------1-------3-------|
 G|-----0-------0-------0-------3---|-----2-------2-------2-----------|-------------2-------2-----------|
 D|---------2---------------2-------|---------3---------------x-------|---------3---------------x-------|
 A|-3-------------------------------|-----------------3---------------|-----------------3---------------|
 E|-----------------3---------------|-1-------------------------------|-1-------------------------------|

Nur Du- Du- Du- Du- Du bist Schuld da- ran!
[C] [F]  
 
 E|---------------------------------|-------------------------0-------|-1-------1-------------------1---|
 B|---------------------------------|---------------------------------|-----------------1-------3-------|
 G|-----0-------0-------0-------0---|-----0-------0-------0-------3---|-----2-------2-------2-----------|
 D|---------2---------------2-------|---------2---------------2-------|---------3---------------3-------|
 A|-3-------------------------------|-3-------------------------------|-----------------3---------------|
 E|-----------------3---------------|-----------------3---------------|-1-------------------------------|

Nur Du- Du- Du- Du- Du,
C G SSSSSSSSSS
 
 E|-----1---------------------------|-----------------0---0-----------|-------------------------------------|
 B|-------------------------1-------|-3-------3-------------------3---|-------------------------------------|
 G|-------------2-------0-------0---|-----0-------0-------------------|-----0-------0-------0---0--2-----0--|
 D|---------3---------------2-------|---------0---------------0-------|---------0---------------------4-----|
 A|-----------------3---------------|-----------------2---------------|-------------------------------------|
 E|-1-------------------------------|-3-------------------------------|-3---------------3-------------------|

dass ich nicht schlafen kann!

Important: The song above is NOT stored on the Chordie server. The original song is hosted at www.azchords.com. Chordie works as a search engine and provides on-the-fly formatting. Chordie does not index songs against artists'/composers' will. To remove this song please click here.

Text color:
Chord color:
Chord grids: 
Font size:    
Page size: 

C F G
Rate #1 of 1 versions

Jango Player

Login - add to songbook

SHARE PAGE  




You need to log in to post comments