Guitar Tabs, Chords and Lyrics
Update 25:10. 13:00. Site is back up running again. Songbooks are recovered. Woring on getting search back up..


Sommer in der Stadt  Spider Murphy Gang

[A] [A]  
V A V D
I renn nackert durchn Englischn Garten sitz high auf'm Monopteros
V A VII G VII E
I kauf ma a Ma√? am Chinesischen Turm und flanier' mit dir auf der Leopoldstra√?
I schl√ľrf an[A] Eiskaffee im Rialto und[D] schau de junga Hasn noch
I glaub mei [A]Chef mua√? heit auf mi ve[G]rzichta ja i[E] lieg vui liaber mit dir im Gras
S'is wieder [A]Sommer[D], [E] s'is wieder [A]Sommer[D], [E]
s'is wieder [A]Sommer[D], [E] Sommer in der [A]Stadt[D] [E]
I renn zur [A]Gaudi durchn Brunna am Stachus, geh durch d'[D]Fu√?g√§ngerzone patschna√?
I [A]schau ma japanische Tou[G]risten o beim [E]Glockenspoi aufm Marienplatz
I fahr zum [A]Badn mit'm Radl an d'Isar lieg auf den [D]Kieselstoana am Strand
I sitz im [A]Biergarten drau√? in da[G] Woidwirtschaft und[E] l√∂sch mit a Ma√? mein Sonnabrand
S'is wieder [A]Sommer[D], [E] s'is wieder [A]Sommer[D], [E]
s'is wieder [A]Sommer[D], [E] Sommer in der [A/]Stadt
Solo:
[A] [A] [D] [D] [A] [G] [E] 
I renn [A]nackert durchn Englischn Garten sitz [D]high auf'm Monopteros
I glaub mei [A]Chef mua√? heit auf mi ve[G]rzichtn ja i[E] liag vui lieaer mit dir im Gras
S'is wieder [A]Sommer[D], [E] s'is wieder [A]Sommer[D], [E]
s'is wieder [A]Sommer[D], [E] Sommer in der [A]Stadt[D] [E]
S'is wieder [A]Sommer[D], [E] s'is wieder [A]Sommer[D], [E]
s'is wieder [A]Sommer[D], [E] Sommer in der [A]Stadt[D] [E]
Intro:
 
 |--10/12-12---12----12----12----12----12--14-12--10-10---9--9---|
 |--12/14----14----14----14----14----14----15-14--12-12---10-10--|
 |---------------------------------------------------------------|
 |---------------------------------------------------------------| 2x
 |---------------------------------------------------------------|
 |---------------------------------------------------------------|

Solo:
 
 |------------------------------------------------------------|
 |----------------------------------------14-15b17r15--14-15--|
 |------------6-7-9----------14p13-14-16----------------------|
 |------6-7-9-------------------------------------------------|
 |--7-9-------------------------------------------------------|
 |------------------------------------------------------------|
 |--17-16-17-19-21-----preb22r21-19---preb22r21-19------------|
 |--17----------------------------------------------17b19r17--|
 |------------------------------------------------------------|
 |------------------------------------------------------------|
 |------------------------------------------------------------|
 |------------------------------------------------------------|

Vers 1:
Chinesischen flanier Leopoldstra√?
 
 |------------------------------12----|
 |------8----------9------------------|
 |----7----------9-----------13-------|
 |--9----------9----------14----------|
 |------------------------------------|
 |------------------------------------|

Vers 2+4:
verzichta liag mit dir
Woidwirt lösch mein Sonnabrand
v E v D v C#m v Hm
 
 |---------------------------12-----10-----9-----7----|
 |------8----------9---------12-----10-----9-----7----|
 |----7----------9-----------13-----11-----9-----7----|
 |--9----------9----------14-----14---- 12----11------|
 |----------------------------------------------------|
 |----------------------------------------------------|

Vers 3:
Touristen Glockenspoi Marienplatz
 
 |-----------------6/7-7-------------6/7--|
 |------8-10-12----8/9-9-------------8/9--|
 |----7-----------------------------------|
 |--9-------------------------------------|
 |----------------------------------------|
 |----------------------------------------|

Vers 5:
Verzichtn liag mit dir
 
 |------------------------------------|
 |------8----------9------------------|
 |----7----------9--------11-9--------|
 |--9----------9----------------------|
 |------------------------------------|
 |------------------------------------|

Comments are welcome

Important: The song above is NOT stored on the Chordie server. The original song is hosted at www.azchords.com. Chordie works as a search engine and provides on-the-fly formatting. Chordie does not index songs against artists'/composers' will. To remove this song please click here.

Text color:
Chord color:
Chord grids: 
Font size:    
Page size: 

A D E G
Rate #1 of 3 versions

Login - add to songbook

SHARE PAGE  




You need to log in to post comments