Guitar Tabs, Chords and Lyrics
Update 25:10. 13:00. Site is back up running again. Songbooks are recovered. Woring on getting search back up..


Movie  Sponge Cola

??MOVIE BY SPONGECOLA"
INAYOS KO LANG PERO MAY MALI PARIN
DITO PAKI RATE NA LANG
Tuning : Eb tuning
VERSE I
[E]The movie?s done once more
[E]The mood sets in with lights
[E]Let?s wait for them to leave[EM7/Eb]
I was never one for crowds[E]
[E] [A]  
 
 eb|-----0-0-0-0-0-0-0-0----------0-0-0-0-0-0-0-0-----------|
 Bb|-----0-0-0-0-0-0-0-0----------2-2-2-2-2-2-2-2-----------|
 Gb|-----9-9-9-9-9-9-9-9----------2-2-2-2-2-2-2-2-----------|
 Db|-----9-9-9-9-9-9-9-9----------2-2-2-2-2-2-2-2-----------|
 Ab|-----7-7-7-7-7-7-7-7----------0-0-0-0-0-0-0-0-----------|
 Eb|-----x-x-x-x-x-x-x-x----------x-x-x-x-x-x-x-x-----------|

I look down on the floor
[E] [A]  
 
 eb|-----0-0-0-0-0-0-0-0-0-0-0-0-0-0---------0-0-0-0-0-0-0-0|
 Bb|-----0-0-0-0-0-0-0-0-0-0-0-0-0-0---------2-2-2-2-2-2-2-2|
 Gb|-----9-9-9-9-9-9-9-9-9-9-9-9-9-9---------2-2-2-2-2-2-2-2|
 Db|-----9-9-9-9-9-9-9-9-9-9-9-9-9-9---------2-2-2-2-2-2-2-2|
 Ab|-----7-7-7-7-7-7-7-7-7-7-7-7-7-7---------0-0-0-0-0-0-0-0|
 Eb|-----x-x-x-x-x-x-x-x-x-x-x-x-x-x---------x-x-x-x-x-x-x-x|

Everything?s undone Yet we?ve been so much more
han a full length f[E]eature
Interlude
[E] [EM7/Eb] [A] [C#m-B]  
 
 eb|---0-0-0-0-0-0-0-0-0-0--0-0-0-0-0---4-4--2-2-|
 Bb|---0-0-0-0-0-0-0-0-0-0--2-2-2-2-2---5-5--4-4-|
 Gb|---9-9-9-9-9-8-8-8-8-8--2-2-2-2-2---6-6--4-4-|
 Db|---9-9-9-9-9-9-9-9-9-9--2-2-2-2-2---6-6--4-4-|
 Ab|---7-7-7-7-7-6-6-6-6-6--0-0-0-0-0---4-4--2-2-|
 Eb|------------------------------------x-x--x-x-|

[G#m] [A]  
 
 eb|--44444444----------------------00000000--------|
 Bb|--44444444----------------------22222222--------|
 Gb|--44444444----------------------22222222--------|
 Db|--66666666----------------------22222222--------|
 Ab|--66666666----------------------0000000---------|
 Eb|--44444444--------------------------------------|

We long for escape Let this memory take shape
[E] [EM7/Eb]  
 
 eb|--0000000---------------00000000----------------|
 Bb|--0000000---------------00000000----------------|
 Gb|--9999999---------------88888888----------------|
 Db|--9999999---------------99999999----------------|
 Ab|--7777777---------------66666666----------------|
 Eb|------------------------------------------------|

For the heroes we often see
[G#m] [A]  
 
 eb|--44444444----------------------00000000--------|
 Bb|--44444444----------------------22222222--------|
 Gb|--44444444----------------------22222222--------|
 Db|--66666666----------------------22222222--------|
 Ab|--66666666----------------------00000000--------|
 Eb|--44444444--------------------------------------|

I don?t know if it?s me Or the movies we?ve seen
[E] [EM7/Eb]  
 
 eb|--0000000---------------00000000----------------|
 Bb|--0000000---------------00000000----------------|
 Gb|--9999999---------------88888888----------------|
 Db|--9999999---------------99999999----------------|
 Ab|--7777777---------------66666666----------------|
 Eb|------------------------------------------------|

I don?t remember As well as i should
CHORUS
GTR I
[E] [EM7/Eb] [A] [C#m-B]  
 
 eb|--0-0-0-0-0----0-0-0-0-0----0-0-0-0-0--------4-4--2-2-|
 Bb|--0-0-0-0-0----0-0-0-0-0----2-2-2-2-2--------5-5--4-4-|
 Gb|--9-9-9-9-9----8-8-8-8-8----2-2-2-2-2--------6-6--4-4-|2x
 Db|--9-9-9-9-9----9-9-9-9-9----2-2-2-2-2--------6-6--4-4-|
 Ab|--7-7-7-7-7----6-6-6-6-6----0-0-0-0-0--------4-4--2-2-|
 Eb|---------------------------------------------x-x--x-x-|

GTR II
[E] [EM7/Eb] [A] [C#m-b]  
 
 eb|----------0--|----------0---|----------0--|--4-4--2-2-|
 Bb|--------0----|--------0-----|--------2----|--5-5--4-4-|
 Gb|------1------|--------------|------2------|--6-6--4-4-|2x
 Db|----2--------|------9-------|----2--------|--6-6--4-4-|
 Ab|--2----------|----6---------|--0----------|--4-4--2-2-|
 Eb|-------------|--0-----------|-------------|--x-x--x-x-|

I stay so silent with your arms adjacent
And credits may soon roll away
INTERLUDE
GTR I
[E] [A] [E] [EM7/Eb]  
 
 eb|-0----0-------0--------0-----------------------------|
 Bb|-0----2-------0--------0-----------------------------|
 Gb|-9----2-------9--------8-----------------------------|
 Db|-9----2-------9--------9-----------------------------|
 Ab|-7----0-------7--------6-----------------------------|
 Eb|-----------------------------------------------------|

VERSE II
[G#m] [A]  
 
 eb|--44444444----------------------00000000--------|
 Bb|--44444444----------------------22222222--------|
 Gb|--44444444----------------------22222222--------|
 Db|--66666666----------------------22222222--------|
 Ab|--66666666----------------------0000000---------|
 Eb|--44444444--------------------------------------|

You have my jacket on
GTR I
[E] [EM7/Eb]  
 
 eb|--0000000---------------00000000----------------|
 Bb|--0000000---------------00000000----------------|
 Gb|--9999999---------------88888888----------------|
 Db|--9999999---------------99999999----------------|
 Ab|--7777777---------------66666666----------------|
 Eb|------------------------------------------------|

Comfort in my warmth ( I?m used to the cold )
[G#m] [A]  
 
 eb|--44444444----------------------00000000--------|
 Bb|--44444444----------------------22222222--------|
 Gb|--44444444----------------------22222222--------|
 Db|--66666666----------------------22222222--------|
 Ab|--66666666----------------------0000000---------|
 Eb|--44444444--------------------------------------|

And i hope you?d agree How this story should be
[E] [EM7/Eb]  
 
 eb|--0000000---------------00000000----------------|
 Bb|--0000000---------------00000000----------------|
 Gb|--9999999---------------88888888----------------|
 Db|--9999999---------------99999999----------------|
 Ab|--7777777---------------66666666----------------|
 Eb|------------------------------------------------|

How i wish i could change the scenes
GTR I
[G#m] [A]  
 
 eb|--44444444----------------------00000000--------|
 Bb|--44444444----------------------22222222--------|
 Gb|--44444444----------------------22222222--------|
 Db|--66666666----------------------22222222--------|
 Ab|--66666666----------------------0000000---------|
 Eb|--44444444--------------------------------------|

GTR II
 
 eb|------------7---------------------------7-------|
 Bb|----7-9-10-----------------------7-9-10---------|
 Gb|--9-----------------------------8---------------|
 Db|------------------------------------------------|
 Ab|------------------------------------------------|
 Eb|------------------------------------------------|

I?d write on the next page An early coming of age
GTR I
[E] [EM7/Eb]  
 
 eb|--0000000---------------00000000----------------|
 Bb|--0000000---------------00000000----------------|
 Gb|--9999999---------------88888888----------------|
 Db|--9999999---------------99999999----------------|
 Ab|--7777777---------------66666666----------------|
 Eb|------------------------------------------------|

GTR II
 
 eb|------7s9-7---------------------7---------------|
 Bb|--7-9--------------------7-9-10-----------------|
 Gb|-9---------------------8------------------------|
 Db|------------------------------------------------|
 Ab|------------------------------------------------|
 Eb|------------------------------------------------|

For me to tell you As well as i could
Chorus
GTR I
[E] [EM7/Eb] [A] [C#m-B]  
 
 eb|--0-0-0-0-0----0-0-0-0-0----0-0-0-0-0--------4-4--2-2-|
 Bb|--0-0-0-0-0----0-0-0-0-0----2-2-2-2-2--------5-5--4-4-|
 Gb|--9-9-9-9-9----8-8-8-8-8----2-2-2-2-2--------6-6--4-4-|2x
 Db|--9-9-9-9-9----9-9-9-9-9----2-2-2-2-2--------6-6--4-4-|
 Ab|--7-7-7-7-7----6-6-6-6-6----0-0-0-0-0--------4-4--2-2-|
 Eb|---------------------------------------------x-x--x-x-|

GTR II
[E] [EM7/Eb] [A] [C#m-b]  
 
 eb|----------0--|----------0---|----------0--|--4-4--2-2-|
 Bb|--------0----|--------0-----|--------2----|--5-5--4-4-|
 Gb|------1------|--------------|------2------|--6-6--4-4-|2x
 Db|----2--------|------9-------|----2--------|--6-6--4-4-|
 Ab|--2----------|----6---------|--0----------|--4-4--2-2-|
 Eb|-------------|--0-----------|-------------|--x-x--x-x-|

I stay so silent with your arms adjacent
And credits may soon roll away
[E] [EM7/Eb] [A] [C#m-B]  
 
 eb|--0-0-0-0-0----0-0-0-0-0----0-0-0-0-0--------4-4--2-2-|
 Bb|--0-0-0-0-0----0-0-0-0-0----2-2-2-2-2--------5-5--4-4-|
 Gb|--9-9-9-9-9----8-8-8-8-8----2-2-2-2-2--------6-6--4-4-|2x
 Db|--9-9-9-9-9----9-9-9-9-9----2-2-2-2-2--------6-6--4-4-|
 Ab|--7-7-7-7-7----6-6-6-6-6----0-0-0-0-0--------4-4--2-2-|
 Eb|---------------------------------------------x-x--x-x-|

Could I stay so silent with your arms adjacent
The vagueness may soon come to light
Should
[E] [EM7/Eb] [A] [C#m-B]  
 
 eb|--0-0-0-0-0----0-0-0-0-0----0-0-0-0-0--------4-4--2-2-|
 Bb|--0-0-0-0-0----0-0-0-0-0----2-2-2-2-2--------5-5--4-4-|
 Gb|--9-9-9-9-9----8-8-8-8-8----2-2-2-2-2--------6-6--4-4-|2x
 Db|--9-9-9-9-9----9-9-9-9-9----2-2-2-2-2--------6-6--4-4-|
 Ab|--7-7-7-7-7----6-6-6-6-6----0-0-0-0-0--------4-4--2-2-|
 Eb|---------------------------------------------x-x--x-x-|

GTR II
ROGEM - > e2ng lead na 2 gawin nyo 2 continues hangang
matapos ung song
 
 eb|-------7----------------------------------------------|
 Bb|---7h9------------------------------------------------|
 Gb|-9----------------------------------------------------|
 Db|------------------------------------------------------|
 Ab|------------------------------------------------------|
 Eb|------------------------------------------------------|

I stay so silent with your arms adjacent
As i play my part in our show
( DO SAME CHORDS )
Forever shall i be the ill-fated type
Forever must i be the one you confide to
Forever must i be the pages you need
For you to write all the secrets that
You hope i would keep
Forever must i drive you home late at night
After watching these films that seem to imitate life
Forever must i be the opinion you seek
Forever will i be the friend that you would keep
EM7/Eb butinga lang alam ko scale na ginamit ni armo

Important: The song above is NOT stored on the Chordie server. The original song is hosted at www.azchords.com. Chordie works as a search engine and provides on-the-fly formatting. Chordie does not index songs against artists'/composers' will. To remove this song please click here.

Text color:
Chord color:
Chord grids: 
Font size:    
Page size: 

A E Em7/Eb G#m
Rate #1 of 6 versions

Jango Player

Login - add to songbook

SHARE PAGE  



You need to log in to post comments