Guitar Tabs, Chords and Lyrics
Update 25:10. 13:00. Site is back up running again. Songbooks are recovered. Woring on getting search back up..


Komm schon  Sportfreunde Stiller

Komm schon
C: x320010
Em: 022000
G: 320001
G2: 355433
D: xx0232
H: 224442
Am: 002210
Intro:
[C] [Em]  
 
 -0-0-0-0-0-0-0-0-0-0--------0-0-0-0-0-0-0-0-0-0-0-----------
 -1-3-3-1-0-1-3-3-1-0h1p0-0-1-3-3-1-0-1-3-3-1-0h1p0----
 -0-0-0-0-0-0-0-0-0-0--------0-0-0-0-0-0-0-0-0-0-0-----------
 -2-2-2-2-2-2-2-2-2-2--------2-2-2-2-2-2-2-2-2-2-2----------- 2mal und beim 2. Mal G statt Em
 -3-3-3-3-3-3-3-3-3-3--------2-2-2-2-2-2-2-2-2-2-2-----------
 -x-x- x- x-x- x-x-x -x- x--------0-0-0-0-0-0-0-0-0-0-0-----------

(wie Intro)
[C] All die Sachen, die die wilden Rocker machen,
[Em] all die Dinge von denen sie oft singen,
[C] all die Taten auf die wir schon so lange warten.
[G]Ich sag' diese Nacht ist wie gemacht daf√ľr!
[D]Komm schon! Komm sch[B]on!
[G2] Nimm dir davon ein[Em]e extra Portion![Am]
Abgemacht, sowas geht[D] in so 'ner Somm[G2]ernacht.[Em]
All die Worte, die uns gro√? erscheinen,
all die Träume, die uns vereinen,
all die Zeiten, die uns im Gedächnis bleiben.
Ich sag' diese Nacht ist wie gemacht daf√ľr!
Komm schon! Komm schon!
Nimm dir davon eine extra Portion!
Abgemacht, sowas geht in so 'ner Sommernacht.
 
 -------------------------------
 -------------------------------
 -7-7-7-7-7-5-3h5p3---- Hm G 2mal
 -------------------------------
 -------------------------------
 -------------------------------

dann Intro
Komm schon! Komm schon!
Nimm dir davon eine extra Portion!
Abgemacht, sowas geht in so 'ner Sommernacht.
Komm schon! Komm schon!
Nimm dir davon eine fette Portion!
Das wär' doch gelacht, sowas geht in so 'ner Sommernacht.
 
 -------------------------------
 -------------------------------
 -7-7-7-7-7-5-3h5p3---- Hm G
 -------------------------------
 -------------------------------
 -------------------------------


Important: The song above is NOT stored on the Chordie server. The original song is hosted at www.azchords.com. Chordie works as a search engine and provides on-the-fly formatting. Chordie does not index songs against artists'/composers' will. To remove this song please click here.

Text color:
Chord color:
Chord grids: 
Font size:    
Page size: 

Am B C D Em G G2
Rate #1 of 1 versions

Jango Player

Login - add to songbook

SHARE PAGE  



You need to log in to post comments