Guitar Tabs, Chords and Lyrics
Server problems seems to be fixed. Chordie has been experiencing problems with songs disappearing. These issues now seems to be fixed, but still verifying the fix. If you find anything strange, please email admin@chordie.com.


Believe  Staind

 
 "-------------------------------------------------------------------------------
 -------------------------------------------------------------------------------

Tuning: DbAbDbAbDbeb
Yeah you read the tuning right, it's the same as "Falling" as well as
"Take This" just without the Baritones extra string G and you add the high e.
After watching all the videos put up with the band playing acousticly,
or just Aaron and Mike, I finally figured out the tunning and it wasn't easy
You just need to tune down the Eb to Db and the G and B string up to Ab
and Db. Simple, right?
This is mainly tabbed from hearing all the acoustic versions so it's a
little bit different than the actual song.
Ok, Aaron's part is simple, he strums four basic power chords throughout
the song with the rest of the strings open.
[Gb] [F] [Ab] [Bb]  
0 0 0 0
0 0 0 0
0 0 0 0
[5] [4] [7] [9]  
[5] [4] [7] [9]  
[5] [4] [7] [9]  
Intro: Rythmn with Melody
The chord names on top of the melody are strummed.
[Gb]  
 
 eb|--------------------------------------------------------------------------|
 Db|----------------0---------------------------------------------------------|
 Ab|------0--------------0-----------------0-----------0----------------------|
 Db|-----------5--------------5-------4h5-----4--4h5-------4------------------|
 Ab|--------------------------------------------------------------------------|
 Db|---5----------------------------------------------------------------------|

[F]  
 
 eb|--------------------------------------------------------------------------|
 Db|----------------0---------------------------------------------------------|
 Ab|------0--------------0-----------------0-----------0----------------------|
 Db|-----------4--------------4-------2h4-----4--2h4-------4------------------|
 Ab|--------------------------------------------------------------------------|
 Db|---4----------------------------------------------------------------------|

[Gb] [Ab]  
 
 eb|---------------------------------------------------------------------------|
 Db|----------------0-------------------------------------------0--------------|
 Ab|------0--------------0-----------------------0-------------------0---------|
 Db|-----------5--------------5--------------------------7----------------7----|
 Ab|---------------------------------------------------------------------------|
 Db|---5--------------------------------7--------------------------------------|

[Bb]  
 
 eb|---------------------------------------------------------------------------|
 Db|-------------------5*--------------------------------------5*--------------|
 Ab|---------9*----------------9*-----------------9*---------------------------|
 Db|------9*-----9*----------------9*-------5*-----------9*--------------------|
 Ab|---------------------------------------------------------------------------|
 Db|---------------------------------------------------------------------------|

Verses:
Aaron strums the same pattern while Mike is playing some fast palm
mutes but in the acoustic videos i got this.
 
 eb|-------------------------------------------------------------------------------------|
 Db|-------------------------------------------------------------------------------------|
 Ab|--------0---------------------0-------------------------0----------------------------|
 Db|-------------5--------4h5---------5-------5------------------5------4h5--------------|
 Ab|------------------5-------------------5--------------------------5-------------------|
 Db|---5----------------------------------------------5----------------------------------|
 eb|------------------------------------------------------------------------------------|
 Db|------------------------------------------------------------------------------------|
 Ab|---------0-----------------------0----------------------0---------------------------|
 Db|--------------4---------4---5--------4-------4--------------4--------4--4----------|
 Ab|-------------------4---------------------4-----------------------4------------------|
 Db|---4-----------------------------------------------4--------------------------------|
 eb|-------------------------------------------------------------------------------------|
 Db|-------------------------------------------------------------------------------------|
 Ab|--------0---------------------0----------------0---------0---------------------------|
 Db|-------------5--------4h5---------5------------------7-------7-----------------------|
 Ab|------------------5-------------------5--------------------------7-------------------|
 Db|---5--------------------------------------7--------------------------7---------------|
 eb|--------------------------------------------------------------------------------|
 Db|--------------------------------------------------------------------------------|
 Ab|--------0-----------------0-----------0-----------------------------------------|
 Db|-------------9--------9--------9-----------9------9-----------------------------|
 Ab|------------------9---------------9------------9--------------------------------|
 Db|---9----------------------------------------------------------------------------|

Then repeat it again.
Chorus
It's the same thing as the intro just varied up a lil bit.
[Gb] [Bb]  
 
 eb|--------------------------------------------------------------------------|
 Db|----------------0---------------------------------------------------------|
 Ab|------0--------------0-----------------0-----------0----------------------|
 Db|-----------5--------------5-------4h5-----4--4h5-------4------------------|
 Ab|--------------------------------------------------------------------------|
 Db|---5----------------------------------------------------------------------|

[F] [Ab]  
 
 eb|--------------------------------------------------------------------------|
 Db|----------------0---------------------------------------------------------|
 Ab|------0--------------0-----------------0-----------0----------------------|
 Db|-----------4--------------4-------2h4-----4--2h4-------4------------------|
 Ab|--------------------------------------------------------------------------|
 Db|---4----------------------------------------------------------------------|

[Gb] [Bb]  
 
 eb|--------------------------------------------------------------------------|
 Db|----------------0---------------------------------------------------------|
 Ab|------0--------------0-----------------0-----------0----------------------|
 Db|-----------5--------------5-------4h5-----4--4h5-------4------------------|
 Ab|--------------------------------------------------------------------------|
 Db|---5----------------------------------------------------------------------|

[F] [Ab]  
 
 eb|---------------------------------------------------------------------------|
 Db|----------------0----------------------------------0-----------------------|
 Ab|------0--------------0------------------0----------------0--------0--------|
 Db|-----------4--------------4------------------7----------------7------------|
 Ab|---------------------------------------------------------------------------|
 Db|---4------------------------------7----------------------------------------|

Repeat this again as well.
Verse 2
[Gb]  
 
 eb|-------------------------------------------------------------------------------------|
 Db|-------------------------------------------------------------------------------------|
 Ab|--------0---------------------0-------------------------0----------------------------|
 Db|-------------5--------4h5---------5-------5------------------5------4h5--------------|
 Ab|------------------5-------------------5--------------------------5-------------------|
 Db|---5----------------------------------------------5----------------------------------|

[F]  
 
 eb|------------------------------------------------------------------------------------|
 Db|------------------------------------------------------------------------------------|
 Ab|---------0-----------------------0----------------------0---------------------------|
 Db|--------------4---------4---5--------4-------4--------------4--------4--4----------|
 Ab|-------------------4---------------------4-----------------------4------------------|
 Db|---4-----------------------------------------------4--------------------------------|

[G] [Ab]  
 
 eb|-------------------------------------------------------------------------------------|
 Db|-------------------------------------------------------------------------------------|
 Ab|--------0---------------------0----------------0---------0---------------------------|
 Db|-------------5--------4h5---------5------------------7-------7-----------------------|
 Ab|------------------5-------------------5--------------------------7-------------------|
 Db|---5--------------------------------------7--------------------------7---------------|

[Bb]  
 
 eb|--------------------------------------------------------------------------------|
 Db|--------------------------------------------------------------------------------|
 Ab|--------0-----------------0-----------0-----------------------------------------|
 Db|-------------9--------9--------9-----------9------9-----------------------------|
 Ab|------------------9---------------9------------9--------------------------------|
 Db|---9----------------------------------------------------------------------------|

[Gb]  
 
 eb|--------------------------------------------------------------------------|
 Db|----------------0---------------------------------------------------------|
 Ab|------0--------------0-----------------0-----------0----------------------|
 Db|-----------5--------------5-------4h5-----4--4h5-------4------------------|
 Ab|--------------------------------------------------------------------------|
 Db|---5----------------------------------------------------------------------|

[F]  
 
 eb|--------------------------------------------------------------------------|
 Db|----------------0---------------------------------------------------------|
 Ab|------0--------------0-----------------0-----------0----------------------|
 Db|-----------4--------------4-------2h4-----4--2h4-------4------------------|
 Ab|--------------------------------------------------------------------------|
 Db|---4----------------------------------------------------------------------|

[Gb]  
 
 eb|--------------------------------------------------------------------------|
 Db|----------------0-------------------------------------------0--------------|
 Ab|------0--------------0-----------------------0-------------------0----------|
 Db|-----------5--------------5--------------------------7----------------7-----|
 Ab|--------------------------------------------------------------------------|
 Db|---5--------------------------------7--------------------------------------|

[Bb]  
 
 eb|---------------------------------------------------------------------------|
 Db|-------------------5*--------------------------------------5*--------------|
 Ab|---------9*----------------9*-----------------9*---------------------------|
 Db|------9*-----9*----------------9*-------5*-----------9*--------------------|
 Ab|---------------------------------------------------------------------------|
 Db|---------------------------------------------------------------------------| 

Chorus:
[Gb] [Bb]  
 
 eb|--------------------------------------------------------------------------|
 Db|----------------0---------------------------------------------------------|
 Ab|------0--------------0-----------------0-----------0----------------------|
 Db|-----------5--------------5-------4h5-----4--4h5-------4------------------|
 Ab|--------------------------------------------------------------------------|
 Db|---5----------------------------------------------------------------------|

[F] [Ab]  
 
 eb|--------------------------------------------------------------------------|
 Db|----------------0---------------------------------------------------------|
 Ab|------0--------------0-----------------0-----------0----------------------|
 Db|-----------4--------------4-------2h4-----4--2h4-------4------------------|
 Ab|--------------------------------------------------------------------------|
 Db|---4----------------------------------------------------------------------|

[Gb] [Bb]  
 
 eb|--------------------------------------------------------------------------|
 Db|----------------0---------------------------------------------------------|
 Ab|------0--------------0-----------------0-----------0----------------------|
 Db|-----------5--------------5-------4h5-----4--4h5-------4------------------|
 Ab|--------------------------------------------------------------------------|
 Db|---5----------------------------------------------------------------------|

[F] [Ab]  
 
 eb|---------------------------------------------------------------------------|
 Db|----------------0----------------------------------0-----------------------|
 Ab|------0--------------0------------------0----------------0--------0--------|
 Db|-----------4--------------4------------------7----------------7------------|
 Ab|---------------------------------------------------------------------------|
 Db|---4------------------------------7----------------------------------------|

Bridge:
 
 eb|---------------------------------------------------------------------------|
 Db|---------------------------------------------------------------------------|
 Ab|-----4/5---5~----------0h2--2~-----7/9---9----4h5--5---4h5---5-------------|
 Db|---------------------------------------------------------------------------|
 Ab|---------------------------------------------------------------------------|
 Db|---------------------------------------------------------------------------|
 eb|---------------------------------------------------------------------------|
 Db|---------------------------------------------------------------------------|
 Ab|-----4/5---5~----------0h2--2~-----7/9---9----4h5--5---4h5---5-------------|
 Db|---------------------------------------------------------------------------|
 Ab|---------------------------------------------------------------------------|
 Db|---------------------------------------------------------------------------|

Interlude:
[Gb]  
 
 eb|--------------------------------------------------------------------------|
 Db|----------------0---------------------------------------------------------|
 Ab|------0--------------0-----------------0-----------0----------------------|
 Db|-----------5--------------5-------4h5-----4--4h5-------4------------------|
 Ab|--------------------------------------------------------------------------|
 Db|---5----------------------------------------------------------------------|

[F]  
 
 eb|--------------------------------------------------------------------------|
 Db|----------------0---------------------------------------------------------|
 Ab|------0--------------0-----------------0-----------0----------------------|
 Db|-----------4--------------4-------2h4-----4--2h4-------4------------------|
 Ab|--------------------------------------------------------------------------|
 Db|---4----------------------------------------------------------------------|

[Gb] [Ab]  
 
 eb|---------------------------------------------------------------------------|
 Db|----------------0-------------------------------------------0--------------|
 Ab|------0--------------0-----------------------0-------------------0---------|
 Db|-----------5--------------5--------------------------7----------------7----|
 Ab|---------------------------------------------------------------------------|
 Db|---5--------------------------------7--------------------------------------|

[Bb]  
 
 eb|---------------------------------------------------------------------------|
 Db|-------------------5*--------------------------------------5*--------------|
 Ab|---------9*----------------9*-----------------9*---------------------------|
 Db|------9*-----9*----------------9*-------5*-----------9*--------------------|
 Ab|---------------------------------------------------------------------------|
 Db|---------------------------------------------------------------------------|

All palm muted
Repeat 2x
 
 p.m.----------------------------------------------------------------------------------------
 eb|-------------------------------------------------------------------------------------------|
 Db|-------------------------------------------------------------------------------------------|
 Ab|-------------------------------------------------------------------------------------------|
 Db|----5--5--5--5--5--5--5---9--9--9--9--9--9--9---4--4--4--4--4--4--4---7--7--7--7--7--7--7--|
 Ab|----5--5--5--5--5--5--5---9--9--9--9--9--9--9---4--4--4--4--4--4--4---7--7--7--7--7--7--7--|
 Db|----5--5--5--5--5--5--5---9--9--9--9--9--9--9---4--4--4--4--4--4--4---7--7--7--7--7--7--7--|

Chorus:
[Gb] [Bb]  
 
 eb|--------------------------------------------------------------------------|
 Db|----------------0---------------------------------------------------------|
 Ab|------0--------------0-----------------0-----------0----------------------|
 Db|-----------5--------------5-------4h5-----4--4h5-------4------------------|
 Ab|--------------------------------------------------------------------------|
 Db|---5----------------------------------------------------------------------|

[F] [Ab]  
 
 eb|--------------------------------------------------------------------------|
 Db|----------------0---------------------------------------------------------|
 Ab|------0--------------0-----------------0-----------0----------------------|
 Db|-----------4--------------4-------2h4-----4--2h4-------4------------------|
 Ab|--------------------------------------------------------------------------|
 Db|---4----------------------------------------------------------------------|

[Gb] [Bb]  
 
 eb|--------------------------------------------------------------------------|
 Db|----------------0---------------------------------------------------------|
 Ab|------0--------------0-----------------0-----------0----------------------|
 Db|-----------5--------------5-------4h5-----4--4h5-------4------------------|
 Ab|--------------------------------------------------------------------------|
 Db|---5----------------------------------------------------------------------|

[F] [Ab]  
 
 eb|---------------------------------------------------------------------------|
 Db|----------------0----------------------------------0-----------------------|
 Ab|------0--------------0------------------0----------------0--------0--------|
 Db|-----------4--------------4------------------7----------------7------------|
 Ab|---------------------------------------------------------------------------|
 Db|---4------------------------------7----------------------------------------|

Outro:
 
 eb|--------------------------------------------------0-----------------------|
 Db|--------------------------------------------------0-----------------------|
 Ab|------0----------------------0--------------------0-----------------------|
 Db|-----------5---------------------4----------------9-----------------------|
 Ab|---------------5--------------------4-------------9-----------------------|
 Db|---5----------------5----4--------------4---------9-----------------------|

Thats about it.
| / slide up
| \ slide down
| h hammer-on
| p pull-off
| ~ vibrato
| + harmonic
| x Mute note
===============================================================================
"

Important: The song above is NOT stored on the Chordie server. The original song is hosted at www.azchords.com. Chordie works as a search engine and provides on-the-fly formatting. Chordie does not index songs against artists'/composers' will. To remove this song please click here.

Text color:
Chord color:
Chord grids: 
Font size:    
Page size: 

Ab Bb F G Gb
Rate #1 of 11 versions

Jango Player

Login - add to songbook

SHARE PAGE  



You need to log in to post comments