Guitar Tabs, Chords and Lyrics
Major upgrade!! After one year development the new version of Chordie is now online! Please give feedback.


Pardon Me  Staind

 
 e|-----------------------------------------------------|
 H|-------7-----------7-----10-----8-----7-----8--------|
 G|---9-----9-----9-----9-----7-----7-----7-----7-------|
 D|-----9-----9-----9-----9-----9-----9-----9-----9-----|
 A|-7-----------7---------------------------------------|
 E|-----------------------------------------------------|
 e|-------5-----------5-----5------------------------|
 H|-------------------------------8-----7-----8------|
 G|---7-----7-----7-----7-----7-----7-----7-----7----|
 D|-----7-----7-----7-----7-----7-----7-----7-----7--|
 A|-5-----------5------------------------------------|
 E|--------------------------------------------------|
 e|-------8--------------7------------------------------|
 H|---------------------------------10-----------8------|
 G|---9-----9-------9-----9-----8------8-----8-----8----|
 D|-----10----10------10----10----9------9-----9-----9--|
 A|-10-----------10-----------9------------9------------|
 E|-----------------------------------------------------|
 e|--------------------------------------------------|
 H|-------7-----------7-----------7------------------|
 G|---9-----9-----9-----9-----9-----9----------------|
 D|-----9-----9-----9-----9-----9-----9--------------|
 A|-7-----------7-----------7-----------7-let-ring---|
 E|-------------------------------------0-let-ring---|

[Em]Iā??m one step from a[D] breakdown
Two steps from being [Cadd9]saved
Just try to see this [Em]through
[Em]Three steps from this [D]nightmare
And four steps from t[Cadd9]he door
The rest is up to [Em]you[Cadd9]
Pardon [A#5]me while I just [Em]turn my back and [D]walk away[Cadd9]
Pardon [A#5]me if I canā??[Em]t listen to th[D]e things you sa[Cadd9]y
Pardon [A#5]me if I canā??[Em]t fake it while yo[D]u still believe[Cadd9]
Pardon [A#5]me
[Em]Iā??m one step from fo[D]rgiveness
And two steps from my [Cadd9]grave.
Weā??re all just passin[Em]g through
Three steps from re[D]demption
Four from the devilā??[Cadd9]s door
On a path that leads to [Em]you[Cadd9]
Pardon [A#5]me while I just [Em]turn my back and [D]walk away[Cadd9]
Pardon [A#5]me if I canā??[Em]t listen to th[D]e things you sa[Cadd9]y
Pardon [A#5]me if I canā??[Em]t fake it while yo[D]u still believe[Cadd9]
Pardon [A#5]me[Cadd9]
Pardon [A#5]me while I just [Em]turn my back and [D]walk away[Cadd9]
Pardon [A#5]me if I canā??[Em]t listen to th[D]e things you sa[Cadd9]y
Pardon [A#5]me if I canā??[Em]t fake it while yo[D]u still believe[Cadd9]
Pardon [A#5]me
[Em]Iā??m two steps from s[D]alvation
But Iā??m only takin[Cadd9]g one
A#5 (You end on Em)
Pardon me

Important: The song above is NOT stored on the Chordie server. The original song is hosted at www.azchords.com. Chordie works as a search engine and provides on-the-fly formatting. Chordie does not index songs against artists'/composers' will. To remove this song please click here.

Text color:
Chord color:
Chord grids: 
Font size:    
Page size: 

A#5 Cadd9 D Em
Rate #3 of 8 versions

Jango Player

Login - add to songbook

SHARE PAGE  



You need to log in to post comments