Guitar Tabs, Chords and Lyrics
Server problems seems to be fixed. Chordie has been experiencing problems with songs disappearing. These issues now seems to be fixed, but still verifying the fix. If you find anything strange, please email admin@chordie.com.


Island  The Starting Line

The Starting Line
Direction
2007 Virgin Records
Tuning: Standard EADGBe
Chords used:
C# - x46664
[G#]Bbm[-] - [466544]x13321
[F#] [-] [244322]  
Intro: C#--
Keyboard:
 
 e|-------4-1-----1-|
 B|-2--4------2-4---|
 G|-----------------|
 D|-----------------|
 A|-----------------|
 E|-----------------|

Verse 1:
C#(hold) C#(hold)
Letā??s sail away Find our own country
C#(hold) C#(hold)
Weā??ll build a house And get tired of palm trees
G#(hold) Bbm(hold) G# C#---
Letā??s get away Letā??s push our lives aside
Keyboard:
 
 e|-------4-1-----1--------4-1---2-1-|
 B|-2--4------2-4----2--4------2-----|
 G|----------------------------------|
 D|----------------------------------|
 A|----------------------------------|
 E|----------------------------------|

Verse 2:
C#(hold) C#(hold)
Iā??ll sport a smile Take in some color
C#(hold) C#(hold)
Under the stars Iā??ll be your lover
G#(hold) Bbm(hold) G# C#---
With no distractions Iā??m gonna treat you right
Keyboard:
 
 e|-------4-1-----1--------4-1---2-1-|
 B|-2--4------2-4----2--4------2-----|
 G|----------------------------------|
 D|----------------------------------|
 A|----------------------------------|
 E|----------------------------------|

Refrain:
[F#] And it seems like things are only getting [Ab]better
[F#] Well it seems like we can never catch a [Ab]break
Chorus 1:
[Bbm] Just keep a hold on me [C#]Donā??t let go
If you[F#] float away If you float a[Ab]way
[Bbm] Waited too long for a [C#]ship to come
Donā??t y[F#]ou float away Donā??t you flo[Ab]at away
Verse 3:
C#(hold) C#(hold)
Letā??s go to bed Letā??s stop debating
C#(hold) C#(hold)
Look at the time Weā??re always waiting
G#(hold) Bbm(hold) G# C#---
But weā??re in love And that should be just fine
Keyboard:
 
 e|-------4-1-----1--------4-1---2-1-|
 B|-2--4------2-4----2--4------2-----|
 G|----------------------------------|
 D|----------------------------------|
 A|----------------------------------|
 E|----------------------------------|

(Repeat Refrain and Chorus 1 twice)
Interlude: Reggae Beat C#
Bridge:
[F#] And if you like (and if you like)
And if you like Some other [Ab]time
I would like to introduce you to the [Bbm]finer things
[F#] If we survive (If we survive)
If we survive Get out a[Ab]live
(Snare Rollings)
Iā??d like to say how beautiful I think you are
Chorus 2:
[Bbm] keep a hold on me [C#]Donā??t let go
If you[F#] float away If you float a[Ab]way
[Bbm] Waited too long for a [C#]ship to come
Donā??t y[F#]ou float away Donā??t you flo[Ab]at away
(Repeat Chorus 1 twice)

Important: The song above is NOT stored on the Chordie server. The original song is hosted at www.azchords.com. Chordie works as a search engine and provides on-the-fly formatting. Chordie does not index songs against artists'/composers' will. To remove this song please click here.

Text color:
Chord color:
Chord grids: 
Font size:    
Page size: 

Ab Bbm C# F# G#
Rate #1 of 2 versions

Jango Player

Login - add to songbook

SHARE PAGE  



You need to log in to post comments