Guitar Tabs, Chords and Lyrics
Server problems seems to be fixed. Chordie has been experiencing problems with songs disappearing. These issues now seems to be fixed, but still verifying the fix. If you find anything strange, please email admin@chordie.com.


All Day and All of the Night  Status Quo

HI,I HAVENT WORKED OUT THE SOLO YET SORRY,IAM WORKING ON ITS GONNA BE BLOODY HARD I AM ONLY 13! THIS SONG(3 CHORDS MY ARSE!!)
INTRO AND VESRE
[F] [G] [A#]  
 
 E----------------
 B----------------
 G----------------
 D----------------
 A-3-5-5-3-8-8-8-5
 E-1-3-3-1-6-6-6-3 X2

THEN DO THE INTRO FOR THE VERSE X 4
STRAIGHT AFTER THAT YOU PLAY;THIS IS THE BRIDGE!
[A#] [F] [A] [G] [C] [A] 
 
 E-------------------------------------
 B-------------------------------------
 G-------------------------------------
 D-3-3-3-3---------------------5-5-5---
 A-1-1-1-1--3-3-3-3--7-7--5-5--3-3-3--7
 E----------1-1-1-1--5-5--3-3---------5 X1

CHORUS
A C HIGH F A
 
 E---------------------
 B---------------------
 G---------------------
 D-7-7--5-5--10-10-10-7
 A-5-5--3-3--8--8--8--5
 E--------------------- X 4 

INTRO VERSE X 4
BRIDGE
CHORUS X 4
SOLO ILL DO LATER .THE SECOND GUITAR PLAYS THE INTRO WHILE GUITAR 1 DOES THE SOLO!!
INTRO/VERSE X 5
BRIDGE
CHORUS X 4
THEN FINISH ON D C HIGH F D
ENJOY!!

Important: The song above is NOT stored on the Chordie server. The original song is hosted at www.azchords.com. Chordie works as a search engine and provides on-the-fly formatting. Chordie does not index songs against artists'/composers' will. To remove this song please click here.

Text color:
Chord color:
Chord grids: 
Font size:    
Page size: 

A A# C F G
Rate #1 of 1 versions

Login - add to songbook

SHARE PAGE  



You need to log in to post comments