Guitar Tabs, Chords and Lyrics
Server problems seems to be fixed. Chordie has been experiencing problems with songs disappearing. These issues now seems to be fixed, but still verifying the fix. If you find anything strange, please email admin@chordie.com.


Me and Jesus  Stellar Kart

Me and Jesus Chords.
 
 e|--------------------------------------------------------------------------|
 B|--------------------------------------------------------------------------|
 G|--------------------------------------------------------------------------|
 D|--------------------------------------------------------------------------|
 A|-4------------------------------------------------------------------------|
 E|--------------------------2------6---------------------4------------------|

(2X??s)
When there's nowhere else to turn. All your bridges have been burned. Feels like you've
rock bottom. Don't give up it's not the end. Open up your heart again. When you feel
no one. Understands where you are
(chorus)
[C#]Someone loves you [G#]even when you don't think [B]so don't you know [F#]you got
Me and Jesus [C#]by your side through the fight you will never [G#]be alone on your own
[B]you got me and [F]Jesus
 
 e|--------------------------------------------------------------------------|
 B|--------------------------------------------------------------------------|
 G|--------------------------------------------------------------------------|
 D|--------------------------------------------------------------------------|
 A|-4------------------------------------------------------------------------|
 E|--------------------------2------6---------------------4------------------|

(2X??s)
After all that we've been through. By now you know I??ve doubted too. But every time my
was in my hands you said to me.
Chorus:
[C#]Someone loves you [G#]even when you don't think [B]so don't you know [F#]you got
Me and Jesus [C#]by your side through the fight you will never [G#]be alone on your own
[B]you got me and [F]Jesus
[C#]Hold on to what we got
[G#]This is worth any cost so
Make the most of life
That's borrowed
[F#]Love like there's no tomorrow
Solo
 
 e|--------------------------------------------------------------------------|
 B|--------------------------------------------------------------------------|
 G|--------------------------------------------------------------------------|
 D|--------------------6-----------------------------------------------------|
 A|8-9-8-6-8-9-8-9-8-6-6-------------9-9-9-9---------------------------------|
 E|--------------------4-4-6-7-7-7-7-----------------------------------------|

Chorus:
[C#]Someone loves you [G#]even when you don't think [B]so don't you know [F#]you got
Me and Jesus [C#]by your side through the fight you will never [G#]be alone on your own
[B]you got me and [F]Jesus
[G#]even when you don't think [B]so don't you know
[F#]you got Me and Jesus [C#]by your side through the fight you will never [G#]be alone on
your own [B]you got me and [F#]Jesus.
End on G#

Important: The song above is NOT stored on the Chordie server. The original song is hosted at www.azchords.com. Chordie works as a search engine and provides on-the-fly formatting. Chordie does not index songs against artists'/composers' will. To remove this song please click here.

Text color:
Chord color:
Chord grids: 
Font size:    
Page size: 

B C# F F# G#
Rate #1 of 12 versions

Jango Player

Login - add to songbook

SHARE PAGE  




You need to log in to post comments