Guitar Tabs, Chords and Lyrics
Server problems seems to be fixed. Chordie has been experiencing problems with songs disappearing. These issues now seems to be fixed, but still verifying the fix. If you find anything strange, please email admin@chordie.com.


Spiritual Fantasy  Steppenwolf

INTRO:
[D] [G] [D] [A]  
 
 E -10--10--10-10--10-10\9-7-7\5-7-5----
 B ----------------------------------5--
 G -------------------------------------
 D -------------------------------------
 A -------------------------------------
 E -------------------------------------

VERSE:
Hum[D]anity grew we[A]ary[D]
Of it's doubtful state of m[A]ind
So it s[D]ummoned from far and called from n[A]ear
All the w[G]ise men thought to be sinc[D]ere
PRE-CHORUS:
To h[D]eal it's wounds and m[G]ake it wh[D]ole
And l[G]ead the way back to the s[D]oul
[D] [G] [D] [A]  
 
 E -10--10--10-10--10-10\9-7-7-5-7-5----
 B ----------------------------------5--
 G -------------------------------------
 D -------------------------------------
 A -------------------------------------
 E -------------------------------------

VERSE:
The ch[D]arlatans they st[A]ayed beh[D]ind
To count their bags of g[A]old
And s[D]ome stayed away
As if to s[A]ay
[G]I know that my way's the only w[D]ay
PRE-CHORUS:
Afr[D]aid to learn they m[G]ay be wr[D]ong
They pr[G]each their nothingness at h[D]ome
CHORUS:
But the w[A]ise men came together
With the h[D]ope to free man kind
Of the r[A]ubbish that had g[E]athered in g[D]od's n[A]ame
To embr[A]ace and trust each other
In the se[D]arch for the supreme
And they fo[A]und that all their te[E]achings were the [D]sa-a[A]me
INSTRUMENTAL:
[A] [D] [A] [D]  
 
 E -----5/7-7--------9-10------5\7-7--------9-10--
 B -2/5--------7\5-7-------2/5--------7\5-7-------
 G -----------------------------------------------
 D -----------------------------------------------
 A -----------------------------------------------
 E -----------------------------------------------

[A]  
 
 E --10-10--10-10--10-10--10-9h10p9--5------------
 B -------------------------------------5---------
 G -----------------------------------------------
 D -----------------------------------------------
 A -----------------------------------------------
 E -----------------------------------------------

VERSE:
And w[D]hen at last the w[A]ord went ro[D]und
That all were one and a[A]ll
M[D]any returned to seek the l[A]ight
Nobody cl[G]aimed that he was ri[D]ght
PRE-CHORUS:
It's s[D]ad to know it's j[G]ust a s[D]ong
To dr[G]eam and hope still can't be wr[D]ong
CHORUS:
But the w[A]ise men came together
With the h[D]ope to free man kind
Of the r[A]ubbish that had g[E]athered in g[D]od's n[A]ame
To embr[A]ace and trust each other
In the se[D]arch for the supreme
And they fo[A]und that all their te[E]achings were the [D]sa-a[A]me
OUTRO - INSTRUMENTAL:
[A] [D] [A] [D]  
 
 E -----5/7-7--------9-10------5\7-7--------9-10--
 B -2/5--------7\5-7-------2/5--------7\5-7-------
 G -----------------------------------------------
 D -----------------------------------------------
 A -----------------------------------------------
 E -----------------------------------------------

[A]  
 
 E --10-10--10-10--10-10--10-9h10p9--5------------
 B -------------------------------------5---------
 G -----------------------------------------------
 D -----------------------------------------------
 A -----------------------------------------------
 E -----------------------------------------------


Important: The song above is NOT stored on the Chordie server. The original song is hosted at www.azchords.com. Chordie works as a search engine and provides on-the-fly formatting. Chordie does not index songs against artists'/composers' will. To remove this song please click here.

Text color:
Chord color:
Chord grids: 
Font size:    
Page size: 

A D E G
Rate #1 of 1 versions

Login - add to songbook

SHARE PAGE  



You need to log in to post comments