Guitar Tabs, Chords and Lyrics
Server problems seems to be fixed. Chordie has been experiencing problems with songs disappearing. These issues now seems to be fixed, but still verifying the fix. If you find anything strange, please email admin@chordie.com.


A Minute Longer  Stereophonics

A MINUTE LONGER by Stereophonics
 
 ----------------------------------------------

INTRO: D / Em / G6 / D
 
 Add this e/--2--0--- to the chords

VERSE1:
 
 D Em (add e/--2--0-- to these 2 chords)

They're calling out,come on let's go
But I'm miles[G6] away to a year before[D]
Laughs from a glass,dr[D]ank to the past[Em]
On the old[G(355433)] green seat like velvet to the hand[Em] [G6]
 
 G/--0h2p0----
 D/----------0--

CHORUS:
[D]Think I'd like to stay a[Em] minute longer[G6] [G5]
[D]Would you like to stay a [Em]minute longer?[G6] [G5]
G/--0h2---
VERSE2:
Last one for some,s[D]ick from the rum[Em]
I p[G6]layed golf on the carpet with someone[D]
Crash back to date,fe[D]w things I hate[Em]
But I'd rath[G(355433)]er us live in the present [Em]day[G6]
 
 G/--0h2--2--0--0h2--2--2---

CHORUS
 
 B/--3--3s5--5--3--

BRIDGE:
[Bm] [G] [Bm] [G] [Bm] [G] [A] 
 
 ------------------------------------------------------------------
 --8s10----------------8s10------------8s10---------------------
 ---------11------------------11----------------11----------5--2--
 -------------7s9s7--------------7s9--------------7s9-----------
 ------------------------------------------------------------------
 ------------------------------------------------------------------

CHORUS:
 
 D Em G6 G5 (B/--5--5--3--)

Think I'd like to stay a minute longer
 
 D Em G6 G5 (B/--5--5--5--5--5--5h3--)

Would you like to stay a minute longer?
 
 D Em G6 G5 (B/--------7--------8-----7----)
 If you'd like I stay a minute longer (G/--5s7------7-------7----7--)

[D]If you'd like I stay [Em]a minute longer[G6] [G5]
SOLO: played on the chorus chords
[D] [Em]  
 
 B/--10--10--10--10--10--10--8--10--10--8--8h10--8--7--7--7h8--8--7-- 

[G6] [G5]  
 
 B/--8--7--5------7s8--8--7--8--7--5------------7-----8------7---------
 G/-------------7-------------------------7--5s7-----7------7------7-----

[D] [Em] [G6]  
 
 B/--10--10--8--8h10--8--7--7--7h8--8--7--8--7--5------7s8--8--7----
 G/-------------------------------------------------------7----------------
 B/--8--7--5--0-- G5 and
 G/--0h2--2--2--0-- and D

ENJOY!!

Important: The song above is NOT stored on the Chordie server. The original song is hosted at www.azchords.com. Chordie works as a search engine and provides on-the-fly formatting. Chordie does not index songs against artists'/composers' will. To remove this song please click here.

Text color:
Chord color:
Chord grids: 
Font size:    
Page size: 

A Bm D Em G G5 G6
Rate #1 of 2 versions

Login - add to songbook

SHARE PAGE  



You need to log in to post comments