Guitar Tabs, Chords and Lyrics
Major upgrade!! After one year development the new version of Chordie is now online! Please give feedback.


She Takes Her Clothes Off  Stereophonics

There's Bits In This Song Played After Verses And That, They're NOT Played On The Guitar So Don't Argue.
Intro
C~m Bm A
 
 e|---O---O---O-----O---O-----O---O-----------------------------------
 B|---5---5---5-----3---3-----2---2-----------------------------------
 G|---6---6---6-----4---4-----2---2-----------------------------------
 D|---6---6---6-----4---4-----2---2-----------------------------------
 A|---4---4---4-----2---2-----O---O-----------------------------------
 E|---4---4---4-----2---2-----X---X-----------------------------------

Played Throughout Verse Until The A D D chords, Which Goes Like This;
[A] [D] [D]  
 
 e|---O---O---O-----2---2-----2---2-----------------------------------
 B|---2---2---2-----3---3-----3---3-----------------------------------
 G|---2---2---2-----2---2-----2---2-----------------------------------
 D|---2---2---2-----O---O-----O---O-----------------------------------
 A|---O---O---O-----X---X-----X---X-----------------------------------
 E|---X---X---X-----X---X-----X---X-----------------------------------

Verse 1
C~m Bm A
She's Got Another Fantasy
C~m Bm A
She Lives In Flat Number Twenty-three
C~m Bm A
Picked First Prize In Carnival Queen
[A]And Now She Takes Her Clot[D]hes Of[D]f
Verse 2
C~m Bm A
C~m Bm A
Collects The Covers Off Her Magazines
C~m Bm A
She Longs To Be Another Teenage Dream
C~m Bm A
The Problem Is She's Turning Forty-three
[A]She Still Takes Her Clothe[D]s Off[D]
The Chorus Goes Like So Lads;
[Em] [G] [A] [D] [Dsus4] [D]  
 
 e|---X-----3----O----2--3-----2--------------------------------------
 B|---O-----3----2----3--3-----3--------------------------------------
 G|---O-----O----2----2--2-----2--------------------------------------
 D|---2-----O----2----O--O-----O--------------------------------------
 A|---2-----2----O----X--X-----X--------------------------------------
 E|---0-----3----X----X--X-----X--------------------------------------

Then The G D, And The G D A;
[G] [D] [G] [D] [A]  
 
 e|---3--3----2--2--2--|---3--3----2--2--2-----O--O-------------------
 B|---3--3----3--3--3--|---3--3----3--3--3-----2--2-------------------
 G|---O--O----2--2--2--|---O--O----2--2--2-----2--2-------------------
 D|---O--O----O--O--O--|---O--O----O--O--O-----2--2-------------------
 A|---2--2----X--X--X--|---2--2----X--X--X-----O--O-------------------
 E|---3--3----X--X--X--|---3--3----X--X--X-----X--X-------------------

Chorus
[Em]She Got The Nickname Por[G]ta Bubbl[A]e Joan[D] [Dsus4] [D]
[Em]They Found Her Dead, Dea[G]d As Nai[A]ls, At H[D]ome[Dsus4] [D]
[G]And She Said, I'm Gonna Be Another Marily[D]n
[G]Bleach My Hair, And Get Real Thi[D]n
[G]And Everybody's Gonna [D]Wanna Danc[A]e With Me
Verse 3
C~m Bm A
C~m Bm A
She Loves To Have Her Little Fantasies
C~m Bm A
She Longed To Be The Wife Of Jimmy Dean
C~m Bm A
But Jimmy's Head Sits In Jimmy's Knees
[A]She Loves To Take Her Clothes [D]Off[D]
Verse 4
C~m Bm A
C~m Bm A
Police Are Looking Round At Twenty-three
C~m Bm A
They Found Her Hanging From Her Swollen Feet
C~m Bm A
They Saw Her Dance Last In Woolworth Street
[A]She Loved To Take Her Clothes [D]Off[D]
Chorus
[Em]She Got The Nickname Por[G]ta Bubbl[A]e Joan[D] [Dsus4] [D]
[Em]They Found Her Dead, Dea[G]d As Nai[A]ls, At H[D]ome[Dsus4] [D]
[G]And She Said, I'm Gonna Be Another Marily[D]n
[G]Bleach My Hair, And Get Real Thi[D]n
[G]And Everybody's Gonna Wanna Dance[D] With Me [A] That Line x2, Then The
First Line Of The Outro,
 
 --------------------------------------------- Then That Line x1 Again, 

Then The 2nd Line Of The Outro.
The Outro Is Played Like This, So Try And Get The Timing Right, It Makes A Difference;
The First Bar Is For The First Line, The Second For The Second (Funny Enough)
D A G | D A G D A
 
 e|-----2--2-----O--O--O-----3--3---|---2--2-----O--O--O-----3--3-----2--2--O----O--
 B|-----3--3-----2--2--2-----3--3---|---3--3-----2--2--2-----3--3-----3--3--2----2--
 G|-----2--2-----2--2--2-----O--O---|---2--2-----2--2--2-----O--O-----2--2--2----2--
 D|-----O--O-----2--2--2-----O--O---|---O--O-----2--2--2-----O--O-----O--O--2----2--
 A|-----X--X-----O--O--O-----2--2---|---X--X-----O--O--O-----2--2-----X--X--O----O--
 E|-----X--X-----X--X--X-----3--3---|---X--X-----X--X--X-----3--3-----X--X--X----X--

This Is For The Last Three Lines;
[D] [A] [G]  
 
 e|---2-----O-----3---------------------------------------------------
 B|---3-----2-----3---------------------------------------------------
 G|---2-----2-----O---------------------------------------------------
 D|---O-----2-----O---------------------------------------------------
 A|---X-----O-----2---------------------------------------------------
 E|---X-----X-----3---------------------------------------------------

Outro
[D]Everybody Wants [A]To Be The Carnival queen[G]
[D]Everybody Wants [A]To Be, Th[G]e Carnival, [D]King Or Quee[A]n
We All Read The Books[D] [A] [G]
She Takes Her Clothes Of[D]f[A] [G]
One By One[D] [A] [G]
Off Again[D] [A] [G]

Important: The song above is NOT stored on the Chordie server. The original song is hosted at www.azchords.com. Chordie works as a search engine and provides on-the-fly formatting. Chordie does not index songs against artists'/composers' will. To remove this song please click here.

Text color:
Chord color:
Chord grids: 
Font size:    
Page size: 

A D Dsus4 Em G
Rate #1 of 5 versions

Login - add to songbook

SHARE PAGE  




You need to log in to post comments