Guitar Tabs, Chords and Lyrics
Major upgrade!! After one year development the new version of Chordie is now online! Please give feedback.


Liberty   Steve Vai

 
 -|-------|--------|-------|------------------------------------------|----------|
 -|-------|--------|-------|---------------------------9--10--12--12--|--12------|
 -|--\49--|--8/11--/13/13--|------------------------------------------|----------|
 -|-------|--------|-------|------------------------------------------|----------|
 -|--7/7--|--/79---|1\711--|------------------------------------------|----------|
 -|-------|--------|-------|------------------------------------------|----------|

 


 


 w/bar


 

 
 -------|-------------|-------------|---------------------------------------|----|
 10--9--|------9--10--|--10--9------|---------9--9--10--9------9------------|----|
 -------|--11---------|---------11--|--9--11---------------11---------------|----|
 -------|-------------|-------------|-----------------------------9--9-~~~--|----|
 -------|-------------|-------------|---------------------------------------|----|
 -------|-------------|-------------|---------------------------------------|----|

 


 


 b2 rb2 b1 rb1 b2 rb2


 

 
 ----------------|-------------------------|-------------------------------------|
 9--10--12---10--|---10--9------9--10---9--|---9-------------9-------------------|
 ----------------|----------11-------------|------11--9--11------11---11--9------|
 ----------------|-------------------------|-------------------------------------|
 ----------------|-------------------------|-------------------------------------|
 ----------------|-------------------------|-------------------------------------|

 


 


 bend only G string up by a full tone


 

 
 ------------------|---------------|---------------|--------------|--------------|
 ------------------|---12--14--14--|--------14-----|--10--12--12--|--------12----|
 h11--11/13\11/13--|---14--16--16--|--------16~~~--|--12--14--14--|--------14----|
 ------------------|---------------|---------------|--------------|--------------|
 ------------------|---------------|---------------|--------------|--------------|
 ------------------|---------------|---------------|--------------|--------------|

 


 


 Fast


 

 
 -----|--------------|---------|-------------------------------------------------|
 ~~~--|--9---10--10--|--9---7--|--7---9/19--19--17--16---------------------------|
 -----|--11--12--12--|--11--9--|--9---------------------16\14--------------------|
 -----|--------------|---------|-------------------------------16--14\13h14------|
 -----|--------------|---------|-------------------------------------------------|
 -----|--------------|---------|-------------------------------------------------|
 -----------------------------------------------14h16p14------14--16--17---------|
 ---------------------13h14p13------13--14--16------------16---------------------|
 p13------13--14--16------------16-----------------------------------------------|
 -----16-------------------------------------------------------------------------|

 


 


 [b2] [b2] [b1] [b2] [b2] [b1]  

 
 h16p14------14--16--17--|---------------17---19---21--|--21---19---17--|--------|
 --------17--------------|-----------------------------|----------------|--------|
 ------------------------|-----------------------------|----------------|--------|
 ------------------------|-----------------------------|----------------|--------|
 ------------------------|-----------------------------|----------------|--------|
 ------------------------|-----------------------------|----------------|--------|

 


 


 [b2] [b2] [b2] [b1] [b2] [b1] [b2] [b1] [b2] [b2]  

 
 16---17---19--19\|---17---16---14---16---17--17\|---16---14---17--|--16--14-----|
 -----------------|------------------------------|-----------------|-------------|
 -----------------|------------------------------|-----------------|-------------|
 -----------------|------------------------------|-----------------|-------------|
 -----------------|------------------------------|-----------------|-------------|
 -----------------|------------------------------|-----------------|-------------|

 


 


 w/bar b2 b2 rb2


 

 
 14-----------------------12------|---------------14--17--19--|---17---17--16----|
 ----16--14\12h14p12------12-~~~--|---------------------------|------------------|
 ---------------------14----------|---------------------------|------------------|
 ---------------------------------|---------------------------|------------------|
 ---------------------------------|---------------------------|------------------|
 ---------------------------------|---------------------------|------------------|

 


 


 b1 b2 rb2


 

 
 14--16--17---16--|--16--16--14--12--14--16---14---14--12/19--17--16-------------|
 -----------------|---------------------------------------------------19--17-----|
 -----------------|--------------------------------------------------------------|
 -----------------|--------------------------------------------------------------|
 -----------------|--------------------------------------------------------------|
 -----------------|--------------------------------------------------------------|

 


 


 rake b2 b2 rb2


 

 
 -------------16---19--19--19--|---------------/12--14--16---14---14--|--12------|
 ---------17-------------------|--------------------------------------|----------|
 16---18-----------------------|--------------------------------------|----------|
 ------------------------------|--------------------------------------|----------|
 ------------------------------|--------------------------------------|----------|
 ------------------------------|--------------------------------------|----------|

 


 


 ph b2 b2 rb2


 

 
 19-----------------------------12p11--9-------------14--16---14---14--|---------|
 --------17----------------------------------12/-16--------------------|---------|
 ----16----------16----------------------------------------------------|---------|
 ------------14-----------14\9-----------------------------------------|---------|
 --------------------12------------------------------------------------|---------|

 


 


 very fast


 

 
 -16--16--16--17p16p14------14---------------------------------------------------|
 -----------------------17------17--15--14--14--14--14--14h15p14------14---------|

 


 


 ph


 

 
 ------------|-------------------------------------------------------------------|
 ------------|-------------------------------------------------------------------|
 14---16~~~--|--13--13--13--14p13p11------11-------------------------------------|
 ------------|------------------------14------14--12--11--11--11--11h12p11-------|
 ------------|-------------------------------------------------------------------|
 ------------|-------------------------------------------------------------------|
 ----11------------------------------------------------------9h10h12-------------|
 14------14--12p11h12p11---------11------------------h10h12----------------------|
 ----------------------------14------14--12\8h10h12------------------------------|

 


 


 T T T b2


 

 
 ---------8h10h12h-17p12p10p8----------------------------------------------------|
 8h10h12------------------------17p12p10p8---15p6h8p6\5h6h8p6p5------------------|

 


 


 ph w/bar


 

 
 p5h7p5\4h5h7p5p4----------------------------------------------------------------|
 ------------------7p5/12\7\5h7p5\4h7p5p4----------------------------------------|
 ------------------------------------------7p5/7---7p5h7p5\3h7p5p3---------------|


Important: The song above is NOT stored on the Chordie server. The original song is hosted at www.azchords.com. Chordie works as a search engine and provides on-the-fly formatting. Chordie does not index songs against artists'/composers' will. To remove this song please click here.

This song is displayed as text-only. Transposing and tuning is only available for chordpro-songs.
Rate #1 of 9 versions

Jango Player

Login - add to songbook

SHARE PAGE  




You need to log in to post comments