Guitar Tabs, Chords and Lyrics
Server problems seems to be fixed. Chordie has been experiencing problems with songs disappearing. These issues now seems to be fixed, but still verifying the fix. If you find anything strange, please email admin@chordie.com.


Changes Are No Good  The Stills

The Stills
Changes are no good - from Logic will brake your heart
_____________________________________________________
Tuning: EADGBe
Legend
h - hammer on
p - pull off
/ - slide up
\ - slide Down
< > - Harmonic
Guitar 1: Rhythm Guitar
Guitar 2: Lead Guitar
Guitar 3: 2nd Lead Guitar
Intro:
Guitar 1:
[Dmaj7] [Amaj7] [Dmaj7] [Amaj7] 
 
 e|-------------------0-0-0-0-0-0-0-0---------------------0-0-0-0-0-0-0-0--|
 B|--7-7-7-7-7-7-7-7--2-2-2-2-2-2-2-2----7-7-7-7-7-7-7-7--2-2-2-2-2-2-2-2--|
 G|--6-6-6-6-6-6-6-6--1-1-1-1-1-1-1-1----6-6-6-6-6-6-6-6--1-1-1-1-1-1-1-1--|
 D|--7-7-7-7-7-7-7-7--2-2-2-2-2-2-2-2----7-7-7-7-7-7-7-7--2-2-2-2-2-2-2-2--|
 A|--5-5-5-5-5-5-5-5--0-0-0-0-0-0-0-0----5-5-5-5-5-5-5-5--0-0-0-0-0-0-0-0--|
 E|------------------------------------------------------------------------|

Guitar 2:
 
 e|------------------------------------------------------------------------|
 B|--------------------------5------------------------------------5--------|
 G|---6----4------------6---------7--------6----4------------6---------7---|
 D|-------------7------------------------------------7---------------------|
 A|------------------------------------------------------------------------|
 E|------------------------------------------------------------------------|

Intro part 2:
Guitar 1:
[Dmaj7] [Amaj7] [Dmaj7] [Amaj7] 
 
 e|-------------------0-0-0-0-0-0-0-0---------------------0-0-0-0-0-0-0-0--|
 B|--7-7-7-7-7-7-7-7--2-2-2-2-2-2-2-2----7-7-7-7-7-7-7-7--2-2-2-2-2-2-2-2--|
 G|--6-6-6-6-6-6-6-6--1-1-1-1-1-1-1-1----6-6-6-6-6-6-6-6--1-1-1-1-1-1-1-1--|
 D|--7-7-7-7-7-7-7-7--2-2-2-2-2-2-2-2----7-7-7-7-7-7-7-7--2-2-2-2-2-2-2-2--|
 A|--5-5-5-5-5-5-5-5--0-0-0-0-0-0-0-0----5-5-5-5-5-5-5-5--0-0-0-0-0-0-0-0--|
 E|------------------------------------------------------------------------|

Guitar 2:
Tremelo Picked
.................
 
 e|----------------------------------------------------------------|
 B|----------------------------------------------------------------|
 G|----------------------------------9-9-7-7-6-6-------------------|
 D|-4-4-4-4-4-4-4/7-7/9-9-9-9-9-9-9--------------9-9-7-7-7-7-7-7-7-|
 A|----------------------------------------------------------------|
 E|----------------------------------------------------------------|

Tremelo Picked
................
 
 e|----------------------------------------------------------------|
 B|----------------------------------------------------------------|
 G|--------------------------------9-9-7-7-6-6---------------------|
 D|--7-7-7-7/4-4/7-7/9-9-9-9-9-9-9--------------9-9-7-7-7-7-7-7-7--|
 A|----------------------------------------------------------------|
 E|----------------------------------------------------------------|
 e|------------------------------------------------|
 B|------------------------------------------------|
 G|--6-6-6-6---------------------------------------|
 D|----------7-7-7-7-6-6-6-6/7-7-7-7/9-9-9-9--7----|
 A|------------------------------------------------|
 E|------------------------------------------------|

____________________________________________________
Verse 1
Guitar 1:
wear a smile, i wear a laugh, on in the back stage changing heads
 
 e|--------------------------------------------------------------|
 B|--------------------------------------------------------------|
 G|-----6---6---6---6---6---6---6---6---6---6---6---6---6---6----|
 D|---7---7---7---7---7---7---7---7---7---7---7---7---7---7---7--|
 A|--------------------------------------------------------------|
 E|--------------------------------------------------------------|

i am a weekday on weekends, i hate my best friends
 
 e|--------------------------------------------------------------|
 B|--------------------------------------------------------------|
 G|-----6---6---6---6---6---6---6---6---6---6---6---6---6---6----|
 D|---7---7---7---7---7---7---7---7---7---7---7---7---7---7---7--|
 A|--------------------------------------------------------------|
 E|--------------------------------------------------------------|

Guitar 2 fill:
 
 e|---------------------------------------|
 B|---------------------------------------|
 G|---------------------------------------|
 D|----------6-7------9--6---------0------|
 A|--<3>----------------------4-5--5~~~---|
 E|---------------------------------------|

Guitar 1:
spoken, choked up on my notes, this heart drones, as i try and act adult
 
 e|--------------------------------------------------------------|
 B|--------------------------------------------------------------|
 G|-----6---6---6---6---6---6---6---6---6---6---6---6---6---6----|
 D|---7---7---7---7---7---7---7---7---7---7---7---7---7---7---7--|
 A|--------------------------------------------------------------|
 E|--------------------------------------------------------------|

but like a walkmen falls to pieces, all parts no heart
 
 e|--------------------------------------------------------------|
 B|--------------------------------------------------------------|
 G|-----6---6---6---6---6---6---6---6---6---6---6---6---6---6----|
 D|---7---7---7---7---7---7---7---7---7---7---7---7---7---7---7--|
 A|--------------------------------------------------------------|
 E|--------------------------------------------------------------|

Guitar 2:
 
 e|-------------------------------------------------------|
 B|-------------------------------------------------------|
 G|---9-----9---9---9---6---6-----9-----9---9---9-----6---|
 D|-----7h9---7---7---7---7---7-9---7h9---7---7---7-9-----|
 A|-------------------------------------------------------|
 E|-------------------------------------------------------|
 e|----------------------------------|
 B|----------------------------------|
 G|------6-------6-------6-------6---|
 D|--7-9-----7-9-----7-9-----7-9-----|
 A|----------------------------------|
 E|----------------------------------|

____________________________________________________
Chrous
Guitar 1:
see me change, changes are no good
[D] [C#m] [F#m] 
 
 e|-------------------4-4-4-4-4-4-4-4----------------------------|
 B|--7-7-7-7-7-7-7-7--5-5-5-5-5-5-5-5----10-10-10-10-10-10-10----|
 G|--7-7-7-7-7-7-7-7--6-6-6-6-6-6-6-6----11-11-11-11-11-11-11----|
 D|--7-7-7-7-7-7-7-7--6-6-6-6-6-6-6-6----11-11-11-11-11-11-11----|
 A|--5-5-5-5-5-5-5-5--4-4-4-4-4-4-4-4----9--9--9--9--9--9--9-----|
 E|--------------------------------------------------------------|

Guitar 2:
Tremelo Picked
...........
 
 e|--------------------------------------------------------------|
 B|-12-12-12-12--10-10-9-9-9-9-9-9-9-9--7-9-10-9-7-9-10-9--------|
 G|--------------------------------------------------------------|
 D|--------------------------------------------------------------|
 A|--------------------------------------------------------------|
 E|--------------------------------------------------------------|

see me change, changes are no good
[D] [C#m] [F#m] 
 
 e|-------------------4-4-4-4-4-4-4-4----------------------------|
 B|--7-7-7-7-7-7-7-7--5-5-5-5-5-5-5-5----10-10-10-10-10-10-10----|
 G|--7-7-7-7-7-7-7-7--6-6-6-6-6-6-6-6----11-11-11-11-11-11-11----|
 D|--7-7-7-7-7-7-7-7--6-6-6-6-6-6-6-6----11-11-11-11-11-11-11----|
 A|--5-5-5-5-5-5-5-5--4-4-4-4-4-4-4-4----9--9--9--9--9--9--9-----|
 E|--------------------------------------------------------------|

Tremelo Picked
...........
 
 e|--------------------------------------------------------------|
 B|-12-12-12-12--10-10-9-9-9-9-9-9-9-9--7-9-10-9-7-9-10-9--------|
 G|--------------------------------------------------------------|
 D|--------------------------------------------------------------|
 A|--------------------------------------------------------------|
 E|--------------------------------------------------------------|

see me change,
[D] [C#m]  
 
 e|-------------------4-4-4-4-4-4-4-4-4-4-4-4-4-4-4-4----------------------|
 B|--7-7-7-7-7-7-7-7--5-5-5-5-5-5-5-5-5-5-5-5-5-5-5-5----------------------|
 G|--7-7-7-7-7-7-7-7--6-6-6-6-6-6-6-6-6-6-6-6-6-6-6-6----------------------|
 D|--7-7-7-7-7-7-7-7--6-6-6-6-6-6-6-6-6-6-6-6-6-6-6-6----------------------|
 A|--5-5-5-5-5-5-5-5--4-4-4-4-4-4-4-4-4-4-4-4-4-4-4-4----------------------|
 E|------------------------------------------------------------------------|

Tremelo Picked
.....................
 
 e|--------------------------------------------------------------|
 B|-10-10-10-10-10-10-9-9-9-9-9-9-9-9-9-9-9-9-9-9-9-9------------|
 G|--------------------------------------------------------------|
 D|--------------------------------------------------------------|
 A|--------------------------------------------------------------|
 E|--------------------------------------------------------------|

_____________________________________________________
Interlude:
Guitar 1:
[Dmaj7] [Amaj7] 
 
 e|-------------------------------------------------------0-0-0-0-0-0-0-0--|
 B|--------------------------------------7-7-7-7-7-7-7-7--2-2-2-2-2-2-2-2--|
 G|--------------------------------------6-6-6-6-6-6-6-6--1-1-1-1-1-1-1-1--|
 D|--------------------------------------7-7-7-7-7-7-7-7--2-2-2-2-2-2-2-2--|
 A|--------------------------------------5-5-5-5-5-5-5-5--0-0-0-0-0-0-0-0--|
 E|------------------------------------------------------------------------|

Guitar 2:
 
 e|------------------------------------------------------------------------|
 B|--------------------------5------------------------------------5--------|
 G|---6----4------------6---------7--------6----4------------6---------7---|
 D|-------------7------------------------------------7---------------------|
 A|------------------------------------------------------------------------|
 E|------------------------------------------------------------------------|

_____________________________________________________
Verse 2
Guitar 2:
all the world's deranged and i'm left crushed people delayed are in a rush
 
 e|-----------------------------------------------------------------|
 B|-----------------------------------------------------------------|
 G|---9-----9---9---9---6---6-----9-----9---9---9-----6---6---6-----|
 D|-----7h9---7---7---7---7---7-9---7h9---7---7---7-9---7---7---7---|
 A|-----------------------------------------------------------------|
 E|-----------------------------------------------------------------|

i'm on a roll but i might throw up will i ruin my make-up?
Guitar 1:
 
 e|-----------------------------------------------------------------|
 B|----10---10---10---10---10---10---0---0---0---0---0---0--12-12---|
 G|--7----7----7----7----7----7----4---4---4---4---4---4----11-11---|
 D|-----------------------------------------------------------------|
 A|-----------------------------------------------------------------|
 E|-----------------------------------------------------------------|

Guitar 2:
 
 e|-----------------------------------------------------------------|
 B|-----------------------------------------------------------------|
 G|---9-----9---9---9---6---6-----9-----9---9---9-----6---6---6-----|
 D|-----7h9---7---7---7---7---7-9---7h9---7---7---7-9---7---7---7---|
 A|-----------------------------------------------------------------|
 E|-----------------------------------------------------------------|

____________________________________________________
Chrous
Guitar 1:
see me change, changes are no good
[D] [C#m] [F#m] 
 
 e|-------------------4-4-4-4-4-4-4-4----------------------------|
 B|--7-7-7-7-7-7-7-7--5-5-5-5-5-5-5-5----10-10-10-10-10-10-10----|
 G|--7-7-7-7-7-7-7-7--6-6-6-6-6-6-6-6----11-11-11-11-11-11-11----|
 D|--7-7-7-7-7-7-7-7--6-6-6-6-6-6-6-6----11-11-11-11-11-11-11----|
 A|--5-5-5-5-5-5-5-5--4-4-4-4-4-4-4-4----9--9--9--9--9--9--9-----|
 E|--------------------------------------------------------------|

Guitar 2:
Tremelo Picked
...........
 
 e|--------------------------------------------------------------|
 B|-12-12-12-12--10-10-9-9-9-9-9-9-9-9--7-9-10-9-7-9-10-9--------|
 G|--------------------------------------------------------------|
 D|--------------------------------------------------------------|
 A|--------------------------------------------------------------|
 E|--------------------------------------------------------------|

see me change, changes are no good
[D] [C#m] [F#m] 
 
 e|-------------------4-4-4-4-4-4-4-4----------------------------|
 B|--7-7-7-7-7-7-7-7--5-5-5-5-5-5-5-5----10-10-10-10-10-10-10----|
 G|--7-7-7-7-7-7-7-7--6-6-6-6-6-6-6-6----11-11-11-11-11-11-11----|
 D|--7-7-7-7-7-7-7-7--6-6-6-6-6-6-6-6----11-11-11-11-11-11-11----|
 A|--5-5-5-5-5-5-5-5--4-4-4-4-4-4-4-4----9--9--9--9--9--9--9-----|
 E|--------------------------------------------------------------|

Tremelo Picked
...........
 
 e|--------------------------------------------------------------|
 B|-12-12-12-12--10-10-9-9-9-9-9-9-9-9--7-9-10-9-7-9-10-9--------|
 G|--------------------------------------------------------------|
 D|--------------------------------------------------------------|
 A|--------------------------------------------------------------|
 E|--------------------------------------------------------------|

see me change,
[D] [C#m]  
 
 e|-------------------4-4-4-4-4-4-4-4-4-4-4-4-4-4-4-4----------------------|
 B|--7-7-7-7-7-7-7-7--5-5-5-5-5-5-5-5-5-5-5-5-5-5-5-5----------------------|
 G|--7-7-7-7-7-7-7-7--6-6-6-6-6-6-6-6-6-6-6-6-6-6-6-6----------------------|
 D|--7-7-7-7-7-7-7-7--6-6-6-6-6-6-6-6-6-6-6-6-6-6-6-6----------------------|
 A|--5-5-5-5-5-5-5-5--4-4-4-4-4-4-4-4-4-4-4-4-4-4-4-4----------------------|
 E|------------------------------------------------------------------------|

Tremelo Picked
.....................
 
 e|--------------------------------------------------------------|
 B|-10-10-10-10-10-10-9-9-9-9-9-9-9-9-9-9-9-9-9-9-9-9------------|
 G|--------------------------------------------------------------|
 D|--------------------------------------------------------------|
 A|--------------------------------------------------------------|
 E|--------------------------------------------------------------|

_____________________________________________________
Solo
Guitar 1 (played throughout)
[Amaj7]  
 
 e|---0-0-0-0-0-0-0-0-0-0-0-0-0-0-0-0--|
 B|---2-2-2-2-2-2-2-2-2-2-2-2-2-2-2-2--|
 G|---1-1-1-1-1-1-1-1-1-1-1-1-1-1-1-1--|
 D|---2-2-2-2-2-2-2-2-2-2-2-2-2-2-2-2--|
 A|---0-0-0-0-0-0-0-0-0-0-0-0-0-0-0-0--|
 E|------------------------------------|

Guitar 2
Tremelo Picked
.................................
 
 e|--------------------------------------------------------------|
 B|--------------------------------------------------------------|
 G|--------------------------------------------------------------|
 D|---6-7~~--9-6-------------------------------------------------|
 A|------------------4---6-6-6-6-6-6-6-6/2-2-2-2-2-2-2-2-2-------|
 E|----------------4---------------------------------------------|
 e|--------------------------------------------------------------|
 B|--------------------------------9-----------------------------|
 G|-----------------8---8b9r8------8---8b9-9-9-9-9-9-9-----------|
 D|---6-7~~--9-6---------------9---6-----------------------------|
 A|--------------------------------------------------------------|
 E|--------------------------------------------------------------|

____________________________________________________
Chrous
Guitar 1:
see me change, changes are no good
[D] [C#m] [F#m] 
 
 e|-------------------4-4-4-4-4-4-4-4----------------------------|
 B|--7-7-7-7-7-7-7-7--5-5-5-5-5-5-5-5----10-10-10-10-10-10-10----|
 G|--7-7-7-7-7-7-7-7--6-6-6-6-6-6-6-6----11-11-11-11-11-11-11----|
 D|--7-7-7-7-7-7-7-7--6-6-6-6-6-6-6-6----11-11-11-11-11-11-11----|
 A|--5-5-5-5-5-5-5-5--4-4-4-4-4-4-4-4----9--9--9--9--9--9--9-----|
 E|--------------------------------------------------------------|

Guitar 2:
Tremelo Picked
...........
 
 e|--------------------------------------------------------------|
 B|-12-12-12-12--10-10-9-9-9-9-9-9-9-9--7-9-10-9-7-9-10-9--------|
 G|--------------------------------------------------------------|
 D|--------------------------------------------------------------|
 A|--------------------------------------------------------------|
 E|--------------------------------------------------------------|

see me change, changes are no good
[D] [C#m] [F#m] 
 
 e|-------------------4-4-4-4-4-4-4-4----------------------------|
 B|--7-7-7-7-7-7-7-7--5-5-5-5-5-5-5-5----10-10-10-10-10-10-10----|
 G|--7-7-7-7-7-7-7-7--6-6-6-6-6-6-6-6----11-11-11-11-11-11-11----|
 D|--7-7-7-7-7-7-7-7--6-6-6-6-6-6-6-6----11-11-11-11-11-11-11----|
 A|--5-5-5-5-5-5-5-5--4-4-4-4-4-4-4-4----9--9--9--9--9--9--9-----|
 E|--------------------------------------------------------------|

Tremelo Picked
...........
 
 e|--------------------------------------------------------------|
 B|-12-12-12-12--10-10-9-9-9-9-9-9-9-9--7-9-10-9-7-9-10-9--------|
 G|--------------------------------------------------------------|
 D|--------------------------------------------------------------|
 A|--------------------------------------------------------------|
 E|--------------------------------------------------------------|

see me change,
[D] [C#m]  
 
 e|-------------------4-4-4-4-4-4-4-4-4-4-4-4-4-4-4-4----------------------|
 B|--7-7-7-7-7-7-7-7--5-5-5-5-5-5-5-5-5-5-5-5-5-5-5-5----------------------|
 G|--7-7-7-7-7-7-7-7--6-6-6-6-6-6-6-6-6-6-6-6-6-6-6-6----------------------|
 D|--7-7-7-7-7-7-7-7--6-6-6-6-6-6-6-6-6-6-6-6-6-6-6-6----------------------|
 A|--5-5-5-5-5-5-5-5--4-4-4-4-4-4-4-4-4-4-4-4-4-4-4-4----------------------|
 E|------------------------------------------------------------------------|

Tremelo Picked
.....................
 
 e|--------------------------------------------------------------|
 B|-10-10-10-10-10-10-9-9-9-9-9-9-9-9-9-9-9-9-9-9-9-9------------|
 G|--------------------------------------------------------------|
 D|--------------------------------------------------------------|
 A|--------------------------------------------------------------|
 E|--------------------------------------------------------------|

____________________________________________________
Outro
Guitar 1:
[Dmaj7] [Amaj7] [Dmaj7] [Amaj7] 
 
 e|-------------------0-0-0-0-0-0-0-0---------------------0-0-0-0-0-0-0-0--|
 B|--7-7-7-7-7-7-7-7--2-2-2-2-2-2-2-2----7-7-7-7-7-7-7-7--2-2-2-2-2-2-2-2--|
 G|--6-6-6-6-6-6-6-6--1-1-1-1-1-1-1-1----6-6-6-6-6-6-6-6--1-1-1-1-1-1-1-1--|
 D|--7-7-7-7-7-7-7-7--2-2-2-2-2-2-2-2----7-7-7-7-7-7-7-7--2-2-2-2-2-2-2-2--|
 A|--5-5-5-5-5-5-5-5--0-0-0-0-0-0-0-0----5-5-5-5-5-5-5-5--0-0-0-0-0-0-0-0--|
 E|------------------------------------------------------------------------|

Guitar 2:
 
 e|------------------------------------------------------------------------|
 B|--------------------------5------------------------------------5--------|
 G|---6----4------------6---------7--------6----4------------6---------7---|
 D|-------------7------------------------------------7---------------------|
 A|------------------------------------------------------------------------|
 E|------------------------------------------------------------------------|

Guitar 3: (faint in background) long slow bend
............
 
 e|--------------------------------------------------------------------------|
 B|--12-12-12-12-12-10-10-10-10-10-9-9-9-9-9-9-------------------------------|
 G|----------------------------------------------11b12r11b12-----------------|
 D|--------------------------------------------------------------------------|
 A|--------------------------------------------------------------------------|
 E|--------------------------------------------------------------------------|

Guitar 1:
[Dmaj7] [Amaj7] [Dmaj7] [Amaj7] 
 
 e|-------------------0-0-0-0-0-0-0-0---------------------0-0-0-0-0-0-0-0--|
 B|--7-7-7-7-7-7-7-7--2-2-2-2-2-2-2-2----7-7-7-7-7-7-7-7--2-2-2-2-2-2-2-2--|
 G|--6-6-6-6-6-6-6-6--1-1-1-1-1-1-1-1----6-6-6-6-6-6-6-6--1-1-1-1-1-1-1-1--|
 D|--7-7-7-7-7-7-7-7--2-2-2-2-2-2-2-2----7-7-7-7-7-7-7-7--2-2-2-2-2-2-2-2--|
 A|--5-5-5-5-5-5-5-5--0-0-0-0-0-0-0-0----5-5-5-5-5-5-5-5--0-0-0-0-0-0-0-0--|
 E|------------------------------------------------------------------------|

Guitar 2: Twang at end
.......
 
 e|-----------------------------------------------------------------7/----|
 B|-----------------------5------------------------------5----------------|
 G|---6---4-----------6-------7-------6---4----------6-------7------------|
 D|------------7------------------------------7---------------------------|
 A|-----------------------------------------------------------------------|
 E|-----------------------------------------------------------------------|

The End
By Mark Bryce

Important: The song above is NOT stored on the Chordie server. The original song is hosted at www.azchords.com. Chordie works as a search engine and provides on-the-fly formatting. Chordie does not index songs against artists'/composers' will. To remove this song please click here.

Text color:
Chord color:
Chord grids: 
Font size:    
Page size: 

Amaj7 C#m D Dmaj7 F#m
Rate #1 of 2 versions

Login - add to songbook

SHARE PAGE  




You need to log in to post comments