Guitar Tabs, Chords and Lyrics
Server problems seems to be fixed. Chordie has been experiencing problems with songs disappearing. These issues now seems to be fixed, but still verifying the fix. If you find anything strange, please email admin@chordie.com.


Fevered  The Stills

The Stills
Fevered - from Logic will brake your heart
_____________________________________________________
Tuning: EADGBe
Legend
h - hammer on
p - pull off
/ - slide up
Guitar 1: Rhythm Guitar
Guitar 2: Lead Guitar
Intro:
Guitar 2
 
 e|---------------------------------------------|
 B|---------------------------------------------|
 G|---0-----0-----0-----0------0----0----0------|
 D|---------------------------------------------|
 A|-2---2/5---5/7---7/9---9/10---10---10---10/--|
 E|---------------------------------------------|
 e|---------------------------------------------|
 B|---------------------------------------------|
 G|----0-----0-----0-----0----0----0----0-------|
 D|---------------------------------------------| (x4)
 A|/14----14----14----14---12---12---12---12----|
 E|---------------------------------------------|

Guitar 1 (plays over lead riff)
G End on A
 
 e|--3-3-3-3-3-3-3-3----5-5--|
 B|--3-3-3-3-3-3-3-3----5-5--|
 G|--4-4-4-4-4-4-4-4----6-6--|
 D|--5-5-5-5-5-5-5-5----7-7--|
 A|--5-5-5-5-5-5-5-5----7-7--|
 E|--3-3-3-3-3-3-3-3----5-5--|

____________________________________________________
Verse 1
Strange light skin that I believe in
It stretches over bone and smells like honey on the wind
Guitar 1
[Em] [Am] [Em] [Bm] 
 
 e|---0-0-0-0---0-0-0-0---0-0-0-0--2-2-2-2---|
 B|---0-0-0-0---1-1-1-1---0-0-0-0--3-3-3-3---|
 G|---0-0-0-0---2-2-2-2---0-0-0-0--4-4-4-4---|
 D|---2-2-2-2---2-2-2-2---2-2-2-2--4-4-4-4---|
 A|---2-2-2-2---0-0-0-0---2-2-2-2--2-2-2-2---|
 E|---0-0-0-0-------------0-0-0-0------------|

Oh so strange I can't remember
Where the heartache ends and the fever ache begins
Guitar 1
[Em] [Am] [Em] [Bm] 
 
 e|---0-0-0-0---0-0-0-0---0-0-0-0--2-2-2-2---|
 B|---0-0-0-0---1-1-1-1---0-0-0-0--3-3-3-3---|
 G|---0-0-0-0---2-2-2-2---0-0-0-0--4-4-4-4---|
 D|---2-2-2-2---2-2-2-2---2-2-2-2--4-4-4-4---|
 A|---2-2-2-2---0-0-0-0---2-2-2-2--2-2-2-2---|
 E|---0-0-0-0-------------0-0-0-0------------|

Guitar 2
 
 e|------------------------------------------|
 B|-----------------------0---0----0-0-0-0---|
 G|-----2---2---2---2---2---2---2--4-4-4-4---|
 D|------------------------------------------|
 A|---0---0---0---0---0----------------------|
 E|------------------------------------------|

____________________________________________________
Interlude 1:
Guitar 1 (much fainter)
[Em] [Am] [Em] [Bm] 
 
 e|---0-0-0-0---0-0-0-0---0-0-0-0--2-2-2-2---|
 B|---0-0-0-0---1-1-1-1---0-0-0-0--3-3-3-3---|
 G|---0-0-0-0---2-2-2-2---0-0-0-0--4-4-4-4---|
 D|---2-2-2-2---2-2-2-2---2-2-2-2--4-4-4-4---|
 A|---2-2-2-2---0-0-0-0---2-2-2-2--2-2-2-2---|
 E|---0-0-0-0-------------0-0-0-0------------|

Guitar 2
 
 e|--------------------------------------------|
 B|------10---------10---------10---------10---|
 G|----9----9-9---9----9-9---9----9-9---9----9-|
 D|--7----------7----------7----------7--------| (x2)
 A|--------------------------------------------|
 E|--------------------------------------------|

____________________________________________________
Verse 2
Scenes of Mary Magalinda
Shakes her lovers bones at all the demons in the window
Guitar 1
[Em] [Am] [Em] [Bm]  
 
 e|---0---------0---------0--------2---------|
 B|---0---------1---------0--------3---------|
 G|---0---------2---------0--------4---------|
 D|---2---------2---------2--------x---------|
 A|---2---------0---------2------------------|
 E|---0-------------------0------------------|

Guitar 2
 
 e|------------------------------------------|
 B|------------------------------------3-----|
 G|--------0--------2---------0--------------|
 D|------2--------2---------2--------4-------|
 A|----2--------0---------2--------2---------|
 E|------------------------------------------|

Oh so strange the dreams of hoping and the
Heartache swells and quickens me in the end
Guitar 1
[Em] [Am] [Em] [Bm] 
 
 e|---0-0-0-0---0-0-0-0---0-0-0-0--2-2-2-2---|
 B|---0-0-0-0---1-1-1-1---0-0-0-0--3-3-3-3---|
 G|---0-0-0-0---2-2-2-2---0-0-0-0--4-4-4-4---|
 D|---2-2-2-2---2-2-2-2---2-2-2-2--4-4-4-4---|
 A|---2-2-2-2---0-0-0-0---2-2-2-2--2-2-2-2---|
 E|---0-0-0-0-------------0-0-0-0------------|

Guitar 2
 
 e|-------------------0---0---0---0---0---0--|
 B|---------------------0---0---0---0---0----|
 G|-2---2---2---2---2------------------------|
 D|------------------------------------------|
 A|------------------------------------------|
 E|------------------------------------------|
 e|---5---5---5---5---5---7---7---7---7---7--|
 B|-0---0---0---0---0---0---0---0---0---0----|
 G|------------------------------------------|
 D|------------------------------------------|
 A|------------------------------------------|
 E|------------------------------------------|

____________________________________________________
Chrous 1:
And it slows down, it slows down
'Till I shut down, I will drown
Guitar 1
G End on A
 
 e|--3-3-3-3-3-3-3-3----5-5--|
 B|--3-3-3-3-3-3-3-3----5-5--|
 G|--4-4-4-4-4-4-4-4----6-6--|
 D|--5-5-5-5-5-5-5-5----7-7--|
 A|--5-5-5-5-5-5-5-5----7-7--|
 E|--3-3-3-3-3-3-3-3----5-5--|

Guitar 2
 
 e|--8-8-8-8--7-7-7-7--8-8-8-8--7-7-7-7---|
 B|--8-8-8-8--8-8-8-8--8-8-8-8--8-8-8-8---|
 G|---------------------------------------|
 D|---------------------------------------| (x4)
 A|---------------------------------------|
 E|---------------------------------------|

____________________________________________________
Interlude 2:
Guitar 1
G End on A
 
 e|--3-3-3-3-3-3-3-3----5-5--|
 B|--3-3-3-3-3-3-3-3----5-5--|
 G|--4-4-4-4-4-4-4-4----6-6--|
 D|--5-5-5-5-5-5-5-5----7-7--|
 A|--5-5-5-5-5-5-5-5----7-7--|
 E|--3-3-3-3-3-3-3-3----5-5--|

Guitar 2
 
 e|---------------------------------------------|
 B|---------------------------------------------|
 G|---0-----0-----0-----0------0----0----0------|
 D|---------------------------------------------|
 A|-2---2/5---5/7---7/9---9/10---10---10---10/--|
 E|---------------------------------------------|
 e|---------------------------------------------|
 B|---------------------------------------------|
 G|----0-----0-----0-----0----0----0----0-------|
 D|---------------------------------------------|
 A|/14----14----14----14---12---12---12---12----|
 E|---------------------------------------------|

____________________________________________________
Solo
Guitar 1
[G] [A]  
 
 e|--3-3-3-3-3-3-3-3--5-5-5-5-5-5-5-5--|
 B|--3-3-3-3-3-3-3-3--5-5-5-5-5-5-5-5--|
 G|--4-4-4-4-4-4-4-4--6-6-6-6-6-6-6-6--| (repeat during solo)
 D|--5-5-5-5-5-5-5-5--7-7-7-7-7-7-7-7--|
 A|--5-5-5-5-5-5-5-5--7-7-7-7-7-7-7-7--|
 E|--3-3-3-3-3-3-3-3--5-5-5-5-5-5-5-5--|

Guitar 2
 
 e|------------------------------------------12--12-\---|
 B|----------------------/13-12-13-----15b17-----17-\---|
 G|--9-7-9----9---9-7-6------------14-------------------|
 D|--------10-------------------------------------------|
 A|-----------------------------------------------------|
 E|-----------------------------------------------------|

____________________________________________________
Verse 3
Strange light skin that I believe in
It leaps out of the phone and spills like honey from the window
<no guitar>
(except Am Chord bashed halfway through)
Warm and strange I can't remember
Heart break mends when the fever ache begins
Guitar 1
[Em] [Am] [Em] [Bm] 
 
 e|---0-0-0-0---0-0-0-0---0-0-0-0--2-2-2-2---|
 B|---0-0-0-0---1-1-1-1---0-0-0-0--3-3-3-3---|
 G|---0-0-0-0---2-2-2-2---0-0-0-0--4-4-4-4---|
 D|---2-2-2-2---2-2-2-2---2-2-2-2--4-4-4-4---|
 A|---2-2-2-2---0-0-0-0---2-2-2-2--2-2-2-2---|
 E|---0-0-0-0-------------0-0-0-0------------|

Guitar 2
 
 e|-------------------0---0---0---0---0---0--|
 B|---------------------0---0---0---0---0----|
 G|-2---2---2---2---2------------------------|
 D|------------------------------------------|
 A|------------------------------------------|
 E|------------------------------------------|
 e|---5---5---5---5---5---7---7---7---7---7--|
 B|-0---0---0---0---0---0---0---0---0---0----|
 G|------------------------------------------|
 D|------------------------------------------|
 A|------------------------------------------|
 E|------------------------------------------|

____________________________________________________
Chrous 2:
And it slows down, it slows down
'Till I shut down, I will drown
Guitar 1
G End on A
 
 e|--3-3-3-3-3-3-3-3----5-5--|
 B|--3-3-3-3-3-3-3-3----5-5--|
 G|--4-4-4-4-4-4-4-4----6-6--|
 D|--5-5-5-5-5-5-5-5----7-7--|
 A|--5-5-5-5-5-5-5-5----7-7--|
 E|--3-3-3-3-3-3-3-3----5-5--|

Guitar 2
 
 e|--8-8-8-8--7-7-7-7--8-8-8-8--7-7-7-7---|
 B|--8-8-8-8--8-8-8-8--8-8-8-8--8-8-8-8---|
 G|---------------------------------------|
 D|---------------------------------------| (x4)
 A|---------------------------------------|
 E|---------------------------------------|

And it slows down, it slows down
'Till I shut down, I will drown
Guitar 1
G End on A
 
 e|--3-3-3-3-3-3-3-3----5-5--|
 B|--3-3-3-3-3-3-3-3----5-5--|
 G|--4-4-4-4-4-4-4-4----6-6--|
 D|--5-5-5-5-5-5-5-5----7-7--|
 A|--5-5-5-5-5-5-5-5----7-7--|
 E|--3-3-3-3-3-3-3-3----5-5--|

Guitar 2
 
 e|--15-15-15-15--17-17-17-17--15-15-15-15-|
 B|--15-15-15-15--15-15-15-15--15-15-15-15-|
 G|----------------------------------------|
 D|----------------------------------------|
 A|----------------------------------------|
 E|----------------------------------------|

Guitar 3
 
 e|-12----12-12--15-14----12---12----12--|
 B|-15b17-17-17--------15-15---15b17-17--| ect......
 G|--------------------------------------|
 D|--------------------------------------|
 A|--------------------------------------|
 E|--------------------------------------|

____________________________________________________
Outro:
Guitar 1
G End on A
 
 e|--3-3-3-3-3-3-3-3----5-5--|
 B|--3-3-3-3-3-3-3-3----5-5--|
 G|--4-4-4-4-4-4-4-4----6-6--|
 D|--5-5-5-5-5-5-5-5----7-7--|
 A|--5-5-5-5-5-5-5-5----7-7--|
 E|--3-3-3-3-3-3-3-3----5-5--|

Guitar 2
 
 e|---------------------------------------------|
 B|---------------------------------------------|
 G|---0-----0-----0-----0------0----0----0------|
 D|---------------------------------------------|
 A|-2---2/5---5/7---7/9---9/10---10---10---10/--|
 E|---------------------------------------------|
 e|---------------------------------------------|
 B|---------------------------------------------|
 G|----0-----0-----0-----0----0----0----0-------|
 D|---------------------------------------------|
 A|/14----14----14----14---12---12---12---12----|
 E|---------------------------------------------|

The End
By Mark Bryce

Important: The song above is NOT stored on the Chordie server. The original song is hosted at www.azchords.com. Chordie works as a search engine and provides on-the-fly formatting. Chordie does not index songs against artists'/composers' will. To remove this song please click here.

Text color:
Chord color:
Chord grids: 
Font size:    
Page size: 

A Am Bm Em G
Rate #1 of 2 versions

Jango Player

Login - add to songbook

SHARE PAGE  



You need to log in to post comments