Guitar Tabs, Chords and Lyrics
Major upgrade!! After one year development the new version of Chordie is now online! Please give feedback.


Plush  Stone Temple Pilots

(Unplugged)
Chords:
Gadd9 [E]3 [A]2 [D]0 [G]0 [B]3 [E]3
D X X 0 2 3 2
[F]C [1]X [3]3 [3]2 [2]0 [1]1 [1]0
Eb/D X 6 5 3 3 3 or X X 1 3 3 3
D X X 0 2 3 2
G 3 2 0 0 0 3
Intro and exit (play 4 times on intro and 4 times on exit)
 
 E ||---3---3---3---3---3---3---3---3---3---------------------|
 B ||---3---3---2---1---1---0---0---1---2---------------------|
 G ||---0---0---3---2---2---0---0---0---0---------------------|
 D ||---0---0---0---0---0---0---------------------------------|
 A ||---------------------------------------------------------|
 E ||---------------------------------------------------------|

[Gadd9]And I f[D]eel that [F#]time's a wasted [C]go
[Eb/D] So where ya[E#/E] goin' to [Gadd9]tomorrow
[Gadd9] And [D]I see tha[F#]t these are l[C]ies to come
[Eb/D]Or would you e[E#/E]ven care
[D] [C] [G] [C]And I
[D]feel [C]it[G] [C]
[D] [C] [G] [C]And I
[D]feel [C]it[G] [C]
[Eb/D]Oh where ya goin' for tom[F#]orrow
[Eb/D]Where ya goin' with the m[F#]ask I found
[Eb/D]And I feel and I feel when the d[F#]ogs begin to smell her
[Eb/D]Will she smell alone [F#]
Repeat intro
[Gadd9] And [D]I feel that [F#]so much depends on t[C]he weather
[Eb/D] So is it ra[E#/E]ining in y[Gadd9]our bedroom
[Gadd9]And I s[D]ee that t[F#]hese are the eye[C]s of disarray
[Eb/D]Or would you [E#/E]even care
[D] [C] [G] [C]And I
[D]feel [C]it[G] [C]
[D] [C] [G] [C]And she
[D]feels[C] i[G]t[C]
((2X))
[Eb/D]Oh where ya goin' for tom[F#]orrow
[Eb/D]Where ya goin' with the m[F#]ask I found
[Eb/D]And I feel and I feel when the d[F#]ogs begin to smell her
[Eb/D]Will she smell alone [F#]
Chorus:
 
 E |--------------------------------|
 B |--------------------------------|
 G |--------------------------------|
 D |--------------------------------|
 A |-5—-5-—5--5--5—--3--3—-3—-3—-3—-|
 E |-3—-3—-3—-3-—3---1--1--1--1--1--|

Where the dogs can find her
 
 E |--------------------------------|
 B |--------------------------------|
 G |--------------------------------|
 D |----------------8--8--7--7------|
 A |-3—-3—-3--3-—3--6—-6--5—-5------|
 E |-0--0--0-—0-—0------------------|

Got time, time to wait 'til
 
 E |--------------------------------|
 B |--------------------------------|
 G |--------------------------------|
 D |--------------------------------|
 A |-5—-5-—5--5--5—--3--3—-3—-3—-3—-|
 E |-3—-3—-3—-3-—3---1--1--1--1--1--|

tomorrow To find her,
 
 E |--------------------------------|
 B |--------------------------------|
 G |--------------------------------|
 D |----------------8--8--7--7------|
 A |-3—-3—-3--3-—3--6—-6--5—-5------|
 E |-0--0--0-—0-—0------------------|

to find her, to find her
Repeat intro >>>

Important: The song above is NOT stored on the Chordie server. The original song is hosted at www.azchords.com. Chordie works as a search engine and provides on-the-fly formatting. Chordie does not index songs against artists'/composers' will. To remove this song please click here.

Text color:
Chord color:
Chord grids: 
Font size:    
Page size: 

A B C D E Eb/D F F# G Gadd9
Rate #1 of 19 versions

Jango Player

Login - add to songbook

SHARE PAGE  




You need to log in to post comments