Guitar Tabs, Chords and Lyrics
Server problems seems to be fixed. Chordie has been experiencing problems with songs disappearing. These issues now seems to be fixed, but still verifying the fix. If you find anything strange, please email admin@chordie.com.


Cornerman  St. Thomas

Intro
Organ-part of the intro
[Gm] [Eb] [F] [Bb] [Gm] [Eb] [F] [Bb]  
 
 E|---------------|-------------|---------------|-------------|
 B|---------------|-------------|---------------|-------------|
 G|---------------|-------------|---------------|-------------|
 D|-----12--10-8--|-10-8-7-8----|-----12--10-8--|-10-8-7-8----|
 A|-10------------|-------------|-10------------|-------------|
 E|---------------|-------------|---------------|-------------|

Banjo-part of the intro
[Gm] [Eb] [F] [Bb] [Gm] [Eb] [F] [Bb]  
 
 E|----------------|---------------|----------------|---------------|
 B|----------------|----------6--6-|----------------|----------6--6-|
 G|----7-5-7---7-3-|-5-3-2-3-------|----7-5-7---7-3-|-5-3-2-3-------|
 D|----------------|---------------|----------------|---------------|
 A|----------------|---------------|----------------|---------------|
 E|----------------|---------------|----------------|---------------|

[Gm]I am the [Eb]cornerman, a[F]lone as I dress [Bb]up
[Gm]I stand here [Eb]everyday, your re[F]jections made me [Bb]stop
[Gm]I won't do [Eb]anything to [F]feel your [Bb]wheel
[Gm]I won't do [Eb]anything to [F]feel your [Bb]wheel
[Gm]I am the [Eb]happiest, made a [F]palace of his [Bb]dreams
[Gm]And when I [Eb]stand right here it's [F]not at all what it [Bb]seems
[Gm]You see this [Eb]thing that [F]I got [Bb]here
[Gm]You see this [Eb]thing that [F]I got [Bb]here
[Eb]I am the [Gm]consequence that [Eb]you want to [Bb]seal
[Eb]You know [Gm]who I am, who you[Eb] want to ste[Bb]al
[Eb]I am the [Gm]consequence that [Eb]you want to [Bb]seal
You [Eb]know who [Bb]I am
|Gm| - |Eb| - |F| - |Bb|
|Gm| - |Eb| - |F| - |Bb|
|Gm| - |Eb| - |F| - |Bb|
|Gm| - |Eb| - |F| - |Bb|
[Gm]I am the [Eb]cornerman, a[F]lone as I dress [Bb]up
[Gm]I stand here [Eb]everyday, your re[F]jections made me [Bb]stop
[Gm]I won't do [Eb]anything to [F]feel your [Bb]wheel
[Gm]I won't do [Eb]anything to [F]feel your [Bb]wheel
[Eb]I am the [Gm]consequence that [Eb]you want to [Bb]seal
[Eb]You know [Gm]who I am, who you[Eb] want to ste[Bb]al
[Eb]I am the [Gm]consequence that [Eb]you want to [Bb]seal
You [Eb]know who [Bb]I am
|Eb - Gm| - |Eb - Bb|
|Eb - Gm| - |Eb - Bb|
|Eb - Gm| - |Eb - Bb|
|Eb| - |Eb| - |Bb|

Important: The song above is NOT stored on the Chordie server. The original song is hosted at www.azchords.com. Chordie works as a search engine and provides on-the-fly formatting. Chordie does not index songs against artists'/composers' will. To remove this song please click here.

Text color:
Chord color:
Chord grids: 
Font size:    
Page size: 

Bb Eb F Gm
Rate #1 of 4 versions

Jango Player

Login - add to songbook

SHARE PAGE  



You need to log in to post comments