Guitar Tabs, Chords and Lyrics
Server problems seems to be fixed. Chordie has been experiencing problems with songs disappearing. These issues now seems to be fixed, but still verifying the fix. If you find anything strange, please email admin@chordie.com.


Goodbye Emily Lang  St. Thomas

Intro
[Bm] [F#m] [A] [F#m]  
 
 E|------------|------------|----------|----------|
 B|------------|------------|----------|----------|
 G|------------|------------|----------|----------|
 D|------------|------------|----------|----------|
 A|-0h2-4--2-0-|--------0-2-|-2--4-----|-5--4-----|
 E|------------|-2----2-----|----------|----------|

[Bm] [F#m] [A] [F#m]  
 
 E|------------|---------------|-----------|--------|
 B|------------|---------------|-----------|--------|
 G|------------|---------------|-----------|--------|
 D|------------|---------------|-----------|--------|
 A|-0h2-4--2-0-|----0------0-2-|-2/4--2--0-|--------|
 E|------------|-2----2--2-----|-----------|-2------|

[Bm]People have expla[F#m]nations to make
E[A]specially from what I've [F#m]heard
[Bm]Now the whole city is [F#m]talking around
[A] They're calling her her [F#m]bird
[Bm]Common knowledge is thrown [F#m]into my head
Will [A]never see what I have [F#m]learned
[Bm]Got a dollar and some [F#m]ticket plans
[A]Can never find a [F#m]word
[G]Emily Lang has [Bm]got me so far
It [F#m]can't get it any [A]worse
[G]Emily Lang is [Bm]in my head
And [F#m]I am in her [A]purse
|Bm| - |F#m| - |A| - |F#m|
|Bm| - |F#m| - |A| - |F#m|
[Bm]In this town there are [F#m]children everywhere
No [A]parents in order to [F#m]kill
[Bm]In a suitcase there is [F#m]one Emily
[A] She's got married and[F#m] bills
[G]Emily Lang has [Bm]got me so far
It [F#m]can't get it any [A]worse
[G]Emily Lang is [Bm]in my head
And [F#m]I am in her [A]purse
[G]Emily Lang has [Bm]got me so far
It [F#m]can't get it any [A]worse
[G]Emily Lang is [Bm]in my head
And [F#m]I am in her [A]purse
|Bm| - |F#m| - |A| - |F#m|
|Bm| - |F#m| - |A| - |F#m| - |Bm|

Important: The song above is NOT stored on the Chordie server. The original song is hosted at www.azchords.com. Chordie works as a search engine and provides on-the-fly formatting. Chordie does not index songs against artists'/composers' will. To remove this song please click here.

Text color:
Chord color:
Chord grids: 
Font size:    
Page size: 

A Bm F#m G
Rate #1 of 1 versions

Login - add to songbook

SHARE PAGE  




You need to log in to post comments