Guitar Tabs, Chords and Lyrics
Major upgrade!! After one year development the new version of Chordie is now online! Please give feedback.


Into the Forest  St. Thomas

(Intro)
[C] [G] [F] [C] [G] [F]  
 
 E|-------8-|---------|-------|----------8-|-------8-|---------|-------|-----8-----|
 B|---------|-8-------|-------|------------|---------|-8-------|-------|-----------|
 G|-9-------|-------9-|-10----|-10----10---|-9-------|-------9-|-10----|-10-----10-|
 D|---------|---------|-------|------------|---------|---------|-------|-----------|
 A|---------|---------|-------|------------|---------|---------|-------|-----------|
 E|---------|---------|-------|------------|---------|---------|-------|-----------|

[C] [G] [F] [C] [G] [F]  
 
 E|--------|---------|-------|-----8------|---8-----|---------|-------|-------|-------|-------|
 B|--------|-8-------|-------|------------|---------|-8-----8-|-------|-------|-------|-------|
 G|-9------|-------9-|-10----|-10-----10--|-9-------|---------|-10----|-10----|-10----|-10----|
 D|--------|---------|-------|------------|---------|---------|-------|-------|-------|-------|
 A|--------|---------|-------|------------|---------|---------|-------|-------|-------|-------|
 E|--------|---------|-------|------------|---------|---------|-------|-------|-------|-------| 

(Verse)
[Am] I[C] went i[G]nto the [F]forest
[Am] E[C]ven be[G]fore my[F] birth
[Am] You [C]think that [G]I am [F]special
Am C G F (4 bars)
Just take a look at me first
|Am|-|Am|-|Am|-|Am|
|Am|-|C|-|G|-|F|
|Am|-|C|-|G|-|F|
|Am|-|C|-|G|-|F|
 
 |Am|-|C|-|G|-|F|-|F|-|F|-|F|

(Verse)
[Am] I'm [C]naked [G]over [F]water
[Am] The [C]ground is [G]over my[F] feet
[Am] Don't [C]care for [G]the sur[F]roundings
Am C G F (4 bars)
My snake is not my fear
(Chorus)
[F] Yes, I'm [Am]special,[F] but it [Am]hurts
[F] Your ca[Am]talogue has [F]made it [Am]worse
[F] Guess I'm [Am]special[F] to com[Am]plain
[F] In this [Am]forest I[F] am not [Am]sane
|Am|-|Am|-|Am|-|Am|
|Am|-|C|-|G|-|F|
|Am|-|C|-|G|-|F|
|Am|-|C|-|G|-|F|
 
 |Am|-|C|-|G|-|F|-|F|-|F|-|F|

(Chorus)
[F] Yes, I'm [Am]special,[F] but it [Am]hurts
[F] Your ca[Am]talogue has [F]made it [Am]worse
[F] Guess I'm [Am]special[F] to com[Am]plain
[F] In this [Am]forest I[F] am not [Am]sane
[Am]  
 
 E|----8-----|----8----|----------|--------|
 B|----------|---------|-8-----8--|--------|
 G|-9-----10-|-9-------|----9-----|-10-----|
 D|----------|---------|----------|--------|
 A|----------|---------|----------|--------|
 E|----------|---------|----------|--------|
 E|-12-12-15-|-17-17-15-|-12-12-15-|-17-----|-12-12-15-|-17-17-15-|-12-12-15-|-17-----|
 B|----------|----------|----------|--------|----------|----------|----------|--------|
 G|-9--9--12-|-14-14-12-|-9--9--12-|-14-----|-9--9--12-|-14-14-12-|-9--9--12-|-14-----|
 D|----------|----------|----------|--------|----------|----------|----------|--------|
 A|----------|----------|----------|--------|----------|----------|----------|--------|
 E|----------|----------|----------|--------|----------|----------|----------|--------| 


Important: The song above is NOT stored on the Chordie server. The original song is hosted at www.azchords.com. Chordie works as a search engine and provides on-the-fly formatting. Chordie does not index songs against artists'/composers' will. To remove this song please click here.

Text color:
Chord color:
Chord grids: 
Font size:    
Page size: 

Am C F G
Rate #1 of 1 versions

Login - add to songbook

SHARE PAGE  




You need to log in to post comments