Guitar Tabs, Chords and Lyrics
Major upgrade!! After one year development the new version of Chordie is now online! Please give feedback.


Garden Grove  Sublime

(Intro)
 
 e|---------------------------|
 B|---------------------------|
 G|---------------------------|
 D|--2-5--2-----2-------------|
 A|---------4-4---------------|
 E|---------------------------|

(Verse 1)
 
 e|-----------------------------------|------------------------------------------------------|
 B|-----------------------------------|------------------------------------------------------|
 G|-----------------------------------|------------------------------------------------------|
 D|-7---7---7---7----5---5---5---5----|-7---7---7---7---5---5---5---5--7--7--7--7--5--5--5--5|
 A|-7---7---7---7----5---5---5---5----|-7---7---7---7---5---5---5---5--7--7--7--7--5--5--5--5|
 E|-----------------------------------|------------------------------------------------------|

We took this trip to Garden Grove It smelled like Lou-dog inside the van, oh yeah
 
 e|---------------------------------------------------------------------------|
 B|-----------------------------------8----8-----8---8---8---8----8---8-------|
 G|--6----6--6------7---7--6--6--4----7----7-----7---7---7---7----7---7-------|
 D|--7----7--7------7---7--7--7--5----9----9-----9---9---9---9----9---9-------|
 A|--7----7--7------5---5--7--7--5----10---10---10--10--10--10---10--10-------|
 E|---------------------------------------------------------------------------|

This ain't no funky reggae party, Five dollars at the door
Chords:
[A] [G]  
 
 e|------0---------3--------|
 B|------2---------0--------|
 G|------2---------0--------|
 D|------2---------0--------|
 A|------0---------2--------|
 E|------0---------3--------|

I[A]t gets so[G] real some[A]times, [G]who wrote my [A]rhyme
I[A]'ve g[G]ot the microwave, [A]got the [G]VCR
I[A] got t[G]he deuce-d[A]euce in the[G] trunk of my car, [A]oh yea[G]h
(Chorus 1)
[A]If you only knew al[A]l the love that I f[A]ound
[A]It's hard to[A] keep my soul on the ground
(Verse 2)
You're a fool, don't f**k around with my do[A]g
A[A]ll that I can see I ste[A]al, [G]I fill up my gara[G]ge
{Chorus 2)
'[A]Cause in[G] my mind
Music from Jamaica, all the love that I found
Pull over there's a reason why my soul's unsound
(Outro)
It's [A]you
It's that sh*t stuck under my shoe
It's that smell inside the van
I[A]t's my b[A]ed sheet c[G]overed with s[G]and
S[A]itting throug[G]h a sh*tty band
[A]Getting dog s[G]h*t on my hands
[A]Getting has[G]sled by the man
[A]Waking up [G]to an alarm
[A]Sticking need[G]les in your arm
[A]Picking up tra[G]sh on a freeway
[A]Feeling depres[G]sed everyday
[A]Leaving with[G]out making a sound
[A]Picking my d[G]og up at the pound
[A]Living in[G] a tweaker pad
[A]Getting yell[G]ed at by my dad
[A]Saying I'm happy whe[A]n I'm not
[A]Finding roaches in the pot
[A]All[G] th[A]ese t[G]hings I do
[A]They're wa[G]iting for you

Important: The song above is NOT stored on the Chordie server. The original song is hosted at www.azchords.com. Chordie works as a search engine and provides on-the-fly formatting. Chordie does not index songs against artists'/composers' will. To remove this song please click here.

Text color:
Chord color:
Chord grids: 
Font size:    
Page size: 

A G
Rate #1 of 7 versions

Jango Player

Login - add to songbook

SHARE PAGE  




You need to log in to post comments