Guitar Tabs, Chords and Lyrics
Major upgrade!! After one year development the new version of Chordie is now online! Please give feedback.


Pawn Shop  Sublime

_______________INTRO_______________
 
 e-----------|
 b-----------|
 g-----0-----|
 d-0-2---2---|
 a-----------|
 e-----------| x 4
 e-------------|
 b-----------3-|
 g-4-2-0-2-4---|
 d-------------|
 a-------------|
 e-------------|
 e--------------------------|
 b------------------3-------|
 g-4-2-0------0-2-4---4-2h4-|
 d-------2------------------|
 a--------------------------|
 e--------------------------| X 3
 e----------------------------0-3-0--|
 b------------------3-------3--------|
 g-4-2-0------0-2-4---4-2-4----------|
 d-------2---------------------------|
 a-----------------------------------|
 e-----------------------------------|
 e-----0-3-0-0--------------------0-3-0--|
 b--3-3---------3-0---0---3-----3--------|
 g------------------2--------------------|
 d---------------------------------------|
 a---------------------------------------|
 e---------------------------------------|
 e--7---------7-10---7----------------7-10-7---7-10-12-15-12--|
 b----10-8-10-----------10-8-----8-10--------10---------------|
 g---------------------------9--------------------------------|
 d------------------------------------------------------------|
 a------------------------------------------------------------|
 e------------------------------------------------------------|
 e-10-10-12-15-12-12----10-7-5-7-3-5-3-0-2--|
 b------------------------------------------|
 g------------------------------------------|
 d------------------------------------------|
 a------------------------------------------|
 e------------------------------------------|
 e---------------------------|
 b---------------------------|
 g---------------------------|
 d-0-2-5-5-0-2-5-5-2-0---0---|
 a---------------------2-----|
 e---------------------------| X 4

[Em]Down there at th[Bm]e pa[Em]wn shop it's[Bm] only way to shop
down there at the pawn shop if it's not in stone
down there at the pawn shop at no end, no way to shop
down there at the pawn shop
<RIFF 1> :
 
 e-----------|
 b-----------|
 g-----0-----|
 d-0-2---2---|
 a-----------|
 e-----------|

[Em]what has[Bm] been told
albino made of stone
<RIFF 1>
[Em]just remember th[Bm]at it's flesh and bone
<INTRO>
so, why I'm
[Em]down here at the[Bm] pawn shop
down here at the pawn shop
down here at the pawn shop
down here at the pawn shop
[Em]what has been so[Bm]ld, [Em]not strickly[Bm] made of stone
just remember that it's flesh and bone
and I have heard, like dike-a-bird yeah
but just remeber that it's flesh and bone
so why I'm
[Em]down here at the[Bm] pawn shop
down here at the pawn shop
<INTRO>
Go!...right!...huh that's right
[Em]down here at the[Bm] paw[Em]n shop it's [Bm]a nifty way to shop
down here at the pawn shop it's another sold
down here at the pawn shop it's a nifty way to shop
down here at the pawn shop what has been sold
not strictly made of stone just remember that it's flesh and bone
what has been sold not strictly sold please remember that it's flesh and bone
down here at the pawn shop...
down here at the pawn shop
down here at the pawn shop
down here at the pawn shop-yop-yop
hu ooh go! see......

Important: The song above is NOT stored on the Chordie server. The original song is hosted at www.azchords.com. Chordie works as a search engine and provides on-the-fly formatting. Chordie does not index songs against artists'/composers' will. To remove this song please click here.

Text color:
Chord color:
Chord grids: 
Font size:    
Page size: 

Bm Em
Rate #1 of 1 versions

Jango Player

Login - add to songbook

SHARE PAGE  




You need to log in to post comments