Guitar Tabs, Chords and Lyrics
Major upgrade!! After one year development the new version of Chordie is now online! Please give feedback.


Santeria  Sublime

[Intro] 
[D] [F#] [Bm] [A] 
 
 e|-------------------------------------------------2------------------0------|
 B|------3-------3-----------------------2--------2---------0-----------------|
 G|----2---2---2---2---------------3-------3----3--------------2----2---------|
 D|--0-------0----------------4--------------4--------4/5--------2------------|
 A|-------------------0-----4---4--------2------------4/5---0-----------------|
 E|-----------------------2---------------------------------------------------|

[Verse] 
D (x4) F# (x4) Bm (x4) A (x4) (x2)
 
 e|-2-------x--------2-----------------0--------------------------------------|
 B|-3-------2--------3--------2-----------------------------------------------|
 G|-2-------3--------4--------2-----------------------------------------------|
 D|-0-------4--------4--------2-----------------------------------------------|
 A|---------4-----------------0-----------------------------------------------|
 E|---------------------------------------------------------------------------|

I don't practi[D]ce Santeria
I ain't got [F#]no crystal ball
I had [Bm]a million dollars but I'd
I'd sp[A]end it all
If I c[D]ould find that Heina
And that Sa[F#]ncho that she's found
Well I'd pop [Bm]a cap in Sancho
And I'd sl[A]ap her down
[Cborus] 
G A D Bm (x3)
 
 e|-3-------3-------------0----2--2---2---2----2------------------------------|
 B|----3---------2-------------3----3-----3--3--------------------------------|
 G|-------0---------2----------2----------4-----------------------------------|
 D|--------------------2------------------------------------------------------|
 A|--------------0------------------------------------------------------------|
 E|-3-------------------------------------------------------------------------|

[G] [A]  
 
 e|-3-------3-----------------------------------------------------------------|
 B|----3--------2-------------------------------------------------------------|
 G|-------0--------2----------------------------------------------------------|
 D|-------------------2-------------------------------------------------------|
 A|-------------0-------------------------------------------------------------|
 E|-3-------------------------------------------------------------------------|

[G]I rea[A]lly wanna k[D]now my[Bm] baby
[G]All I rea[A]lly wanna sa[D]y I [Bm]can't defi[G]ne
It's lo[A]ve that I ne[D]ed [Bm]
[G]But my soul w[A]ill have to
[Verse] 
D (x4) F# (x4) Bm (x4) A (x4) (x2)
 
 e|-2-------x--------2-----------------0--------------------------------------|
 B|-3-------2--------3--------2-----------------------------------------------|
 G|-2-------3--------4--------2-----------------------------------------------|
 D|-0-------4--------4--------2-----------------------------------------------|
 A|---------4-----------------0-----------------------------------------------|
 E|---------------------------------------------------------------------------|

Wait[D] 'till I get back, find a He[F#]ina of my own
Dad[Bm]dy's gonna love one and [A]all
[D]I feel the break, feel the break, [F#]feel the break
And I gotta live it [Bm]up Oh yeah, h[A]uh
[A]Well, I swear that I...
[Cborus] 
G A D Bm (x3)
 
 e|-3-------3-------------0----2--2---2---2----2------------------------------|
 B|----3---------2-------------3----3-----3--3--------------------------------|
 G|-------0---------2----------2----------4-----------------------------------|
 D|--------------------2------------------------------------------------------|
 A|--------------0------------------------------------------------------------|
 E|-3-------------------------------------------------------------------------|

[G] [A]  
 
 e|-3-------3-----------------------------------------------------------------|
 B|----3--------2-------------------------------------------------------------|
 G|-------0--------2----------------------------------------------------------|
 D|-------------------2-------------------------------------------------------|
 A|-------------0-------------------------------------------------------------|
 E|-3-------------------------------------------------------------------------|

[G]I rea[A]lly wanna k[D]now my[Bm] baby
[G]All I rea[A]lly wanna sa[D]y I [Bm]can't defi[G]ne
It's lo[A]ve that I ne[D]ed [Bm]
[G]But my soul w[A]ill have to
[Solo] 
 
 e|-------------------------------------------|--------------------------------|
 B|-------------------------------------------|--------------------------------|
 G|---------------7h9^11-9-7--6-6-6p4-6^7^6---|4-4p2---2-----------------------|
 D|----------7h9------------------------------|------4---2p0??0h2p0---0---------|
 A|---5--7h9----------------------------------|--------------------2---2-0-----|
 E|-------------------------------------------|--------------------------------|
 e|-----------------------------|-5h7--7p5-------------------------------------|
 B|--------------------------3--|---------7p5----------------------------------|
 G|-------------------2h3h5-----|-------------7p4h7-??7p4-----------------------|
 D|-------------2h3h5-----------|------------------------7-----7----------8--8-|
 A|-------0h1h2-----------------|--------------------------7/9---9-7-9--9------|
 E|-0h1h2-----------------------|----------------------------------------------|
 e|--------7------------7------------------------------------------------------|
 B|--9^11----7----9^11----7----------------------------------------------------|
 G|--9^11------7--9^11------7---9^11^9--9^11^9--9-7----------------------------|
 D|----------------------------------------------------------------------------|
 A|----------------------------------------------------------------------------|
 E|----------------------------------------------------------------------------|

[Cborus] 
G A D Bm (x3)
 
 e|-3-------3-------------0----2--2---2---2----2-------------------------------|
 B|----3---------2-------------3----3-----3--3---------------------------------|
 G|-------0---------2----------2----------4------------------------------------|
 D|--------------------2-------------------------------------------------------|
 A|--------------0-------------------------------------------------------------|
 E|-3--------------------------------------------------------------------------|

[G] [A]  
 
 e|-3-------3------------------------------------------------------------------|
 B|----3--------2--------------------------------------------------------------|
 G|-------0--------2-----------------------------------------------------------|
 D|-------------------2--------------------------------------------------------|
 A|-------------0--------------------------------------------------------------|
 E|-3--------------------------------------------------------------------------|

[G]All I re[A]ally wanna [D]say my [Bm]baby
[G]All I rea[A]lly wanna sa[D]y is I'[Bm]ve got mine[A]
And I[A]'ll make it yes [D]I'm comin' u[Bm]p
[G]Tell Sanchi[A]to that if...
[Verse] 
D (x4) F# (x4) Bm (x4) A (x4) (x2)
 
 e|-2-------x--------2-----------------0--------------------------------------|
 B|-3-------2--------3--------2-----------------------------------------------|
 G|-2-------3--------4--------2-----------------------------------------------|
 D|-0-------4--------4--------2-----------------------------------------------|
 A|---------4-----------------0-----------------------------------------------|
 E|---------------------------------------------------------------------------|

[D]He knows what is good for him
He [F#]best go run and hide
D[Bm]addy's got a new .[A]45
[D]And I won't think twice to stick that barrel
[F#]Straight down Sancho's throat
Bel[Bm]ieve me when I say that
I've g[A]ot something for his punk ass
[Cborus] 
G A D Bm (x3)
 
 e|-3-------3-------------0----2--2---2---2----2------------------------------|
 B|----3---------2-------------3----3-----3--3--------------------------------|
 G|-------0---------2----------2----------4-----------------------------------|
 D|--------------------2------------------------------------------------------|
 A|--------------0------------------------------------------------------------|
 E|-3-------------------------------------------------------------------------|

G A D C# B A G A E7no5
 
 e|-3-------3----------------------------3--0---------------------------------|
 B|----3--------2-----------7--6--4--2---3--2---------------------------------|
 G|-------0--------2--------7--6--4--2---0--2---5-----------------------------|
 D|-------------------2-----7--6--4--2---0--2---4-----------------------------|
 A|-------------0-----------5--4--2--0---2--0---5-----------------------------|
 E|-3------------------------------------3------------------------------------|

[G]I rea[A]lly wanna k[D]now my[Bm] baby
[G]All I rea[A]lly wanna sa[D]y I [Bm]can't defi[G]ne
It's lo[A]ve that I ne[D]ed [Bm]
But my s[G]oul will have [A]to
[D]Wait[C#] [B] [A]
G A E7no5

Important: The song above is NOT stored on the Chordie server. The original song is hosted at www.azchords.com. Chordie works as a search engine and provides on-the-fly formatting. Chordie does not index songs against artists'/composers' will. To remove this song please click here.

Text color:
Chord color:
Chord grids: 
Font size:    
Page size: 

A B Bm C# D F# G
Rate #1 of 16 versions

Jango Player

Login - add to songbook

SHARE PAGE  




You need to log in to post comments