Guitar Tabs, Chords and Lyrics
Server problems seems to be fixed. Chordie has been experiencing problems with songs disappearing. These issues now seems to be fixed, but still verifying the fix. If you find anything strange, please email admin@chordie.com.


Zero Star  SugarComa

|ZERO STAR|
By Sugarcoma
7th August 2002
Key: G
Intro: (acoustic)
[E-] [D] [C] [G] [D]  
 
 E|-------------------------2-------------------------------------|
 B|---------------------3-----3-------------1------------------3--|
 G|---------0---------2---2-----2-------0-----0---------0----2----|
 D|-----2-----2-----0-----------------2---2-----2-----0----0------|
 A|---2---2-----2-------------------3-----------------------------|
 E|-0-----------------------------------------------3-------------|

Bass part
 
 || G|------|

|| D|-0h2--|
 
 || A|------|
 || E|------|

[E-] [D] [C] [G] [D]  
 
 E|-------------------------2-------------------------------------|
 B|---------------------3-----3-------------1------------------3--|
 G|---------0---------2---2-----2-------0-----0---------0----2----|
 D|-----2-----2-----0-----------------2---2-----2-----0----0------|
 A|---2---2-----2-------------------3-----------------------------|
 E|-0-----------------------------------------------3-------------|

Bass part
 
 || G|------|

|| D|-0h2--|
 
 || A|------|
 || E|------|

Verse (same as intro):
[E-] [D] [C] [G] [D]  
 
 E|-------------------------2-------------------------------------|
 B|---------------------3-----3-------------1------------------3--|
 G|---------0---------2---2-----2-------0-----0---------0----2----|
 D|-----2-----2-----0-----------------2---2-----2-----0----0------|
 A|---2---2-----2-------------------3-----------------------------|
 E|-0-----------------------------------------------3-------------|

Bass part
 
 || G|------|

|| D|-0h2--|
 
 || A|------|
 || E|------|

[E-] [D] [C] [G] [D]  
 
 E|-------------------------2-------------------------------------|
 B|---------------------3-----3-------------1------------------3--|
 G|---------0---------2---2-----2-------0-----0---------0----2----|
 D|-----2-----2-----0-----------------2---2-----2-----0----0------|
 A|---2---2-----2-------------------3-----------------------------|
 E|-0-----------------------------------------------3-------------|

Chorus (heavy distortion)
Time: 8/16
[D5] [C5] [E5] [G5] [E5] [G5] [E5] [G5]  
 
 E|---------------------------------------------------------------|
 B|---------------------------------------------------------------|
 G|--7------5-----------------------------------------------------|
 D|--7------5------2------5------2------5------2------5-----------|
 A|--5------3------2------5------2------5------2------5-----------|
 E|----------------0------3------0------3------0------3-----------|

(let ring)
Verse:
[E-] [D] [C] [G] [D]  
 
 E|-------------------------2-------------------------------------|
 B|---------------------3-----3-------------1------------------3--|
 G|---------0---------2---2-----2-------0-----0---------0----2----|
 D|-----2-----2-----0-----------------2---2-----2-----0----0------|
 A|---2---2-----2-------------------3-----------------------------|
 E|-0-----------------------------------------------3-------------|

[E-] [D] [C] [G] [D]  
 
 E|-------------------------2-------------------------------------|
 B|---------------------3-----3-------------1------------------3--|
 G|---------0---------2---2-----2-------0-----0---------0----2----|
 D|-----2-----2-----0-----------------2---2-----2-----0----0------|
 A|---2---2-----2-------------------3-----------------------------|
 E|-0-----------------------------------------------3-------------|

Chorus (heavy distortion)
Time: 8/16
[D5] [C5] [E5] [G5] [E5] [G5] [E5] [G5]  
 
 E|---------------------------------------------------------------|
 B|---------------------------------------------------------------|
 G|--7------5-----------------------------------------------------|
 D|--7------5------2------5------2------5------2------5-----------|
 A|--5------3------2------5------2------5------2------5-----------|
 E|----------------0------3------0------3------0------3-----------|

Guitar 1
[D5] [C5] [E5] [G5] [E5] [G5] [E5] [G5]  
 
 ||E|------------------------------------------------------------|
 ||B|------------------------------------------------------------|
 ||G|--7------5--------------------------------------------------|
 ||D|--7------5------2------5------2------5------2------5--------|
 ||A|--5------3------2------5------2------5------2------5--------|
 ||E|----------------0------3------0------3------0------3--------|

|| Guitar 2 (let ring)
 
 ||E|------------------------------------------------------------|
 ||B|------------------------------------------------------------|
 ||G|------------------------------------------------------------|
 ||D|----------------999999-121212-999999-121212-999999-12-------|
 ||A|--999999-777777---------------------------------------------|
 ||E|------------------------------------------------------------|

(let ring)
Verse 2: (distortion)
[F5] [G5]  
 
 E|---------------------------------------------------------------|
 B|---------------------------------------------------------------|
 G|--7-9------7-9------7-9----------------------------------------|
 D|------9-8------9-8------9-8----3-----5-------------------------|
 A|-------------------------------3-----5-------------------------|
 E|-------------------------------1-----3-------------------------|

[F5] [G5]  
 
 E|---------------------------------------------------------------|
 B|---------------------------------------------------------------|
 G|--7-9------7-9------7-9----------------------------------------|
 D|------9-8------9-8------9-8----3-----5-------------------------|
 A|-------------------------------3-----5-------------------------|
 E|-------------------------------1-----3-------------------------|

[F5] [G5]  
 
 E|---------------------------------------------------------------|
 B|---------------------------------------------------------------|
 G|--7-9------7-9------7-9----------------------------------------|
 D|------9-8------9-8------9-8----3-----5-------------------------|
 A|-------------------------------3-----5-------------------------|
 E|-------------------------------1-----3-------------------------|

[F5] [G5]  
 
 E|---------------------------------------------------------------|
 B|---------------------------------------------------------------|
 G|--7-9------7-9------7-9----------------------------------------|
 D|------9-8------9-8------9-8----3-----5-------------------------|
 A|-------------------------------3-----5-------------------------|
 E|-------------------------------1-----3-------------------------|

Time 8/16 except for the last two power chords (4/4 each; let ring the last A5)
[E5] [D5] [C5] [G5] [E5] [D5] [C5] [G5] [A5]  
 
 E|---------------------------------------------------------------|
 B|---------------------------------------------------------------|
 G|---------7------5--------------------7------5------------------|
 D|--2------7------5------5------2------7------5------5------7----|
 A|--2------5------3------5------2------5------3------5------7----|
 E|--0--------------------3------0--------------------3------5----|

Chorus (heavy distortion)
Time: 8/16
Guitar 1
[D5] [C5] [E5] [G5] [E5] [G5] [E5] [G5]  
 
 ||E|------------------------------------------------------------|
 ||B|------------------------------------------------------------|
 ||G|--7------5--------------------------------------------------|
 ||D|--7------5------2------5------2------5------2------5--------|
 ||A|--5------3------2------5------2------5------2------5--------|
 ||E|----------------0------3------0------3------0------3--------|

|| Guitar 2
 
 ||E|------------------------------------------------------------|
 ||B|------------------------------------------------------------|
 ||G|------------------------------------------------------------|
 ||D|----------------999999-121212-999999-121212-999999-12---9-12|
 ||A|--999999-777777---------------------------------------------|
 ||E|------------------------------------------------------------|

Guitar 1
[D5] [C5] [E5] [G5] [E5] [G5] [E5] [G5]  
 
 ||E|------------------------------------------------------------|
 ||B|------------------------------------------------------------|
 ||G|--7------5--------------------------------------------------|
 ||D|--7------5------2------5------2------5------2------5--------|
 ||A|--5------3------2------5------2------5------2------5--------|
 ||E|----------------0------3------0------3------0------3--------|

|| Guitar 2 (let ring)
 
 ||E|------------------------------------------------------------|
 ||B|------------------------------------------------------------|
 ||G|11-11-11-12-12----------------------------------------------|
 ||D|----------------999999-121212-999999-121212-11-11--12-------|
 ||A|------------------------------------------------------------|
 ||E|------------------------------------------------------------|

(let ring)
That’s my first tab and I did it only because someone of the forum (I guess it was Nick Kinrade) was looking for Sugarcoma “Zerostar” tab. Please use it only for private study and e-mail me or send me any ICQ/msn message for any mistake. Have fun and don’t melt the guitar :P

Important: The song above is NOT stored on the Chordie server. The original song is hosted at www.azchords.com. Chordie works as a search engine and provides on-the-fly formatting. Chordie does not index songs against artists'/composers' will. To remove this song please click here.

Text color:
Chord color:
Chord grids: 
Font size:    
Page size: 

A5 C C5 D D5 E5 F5 G G5
Rate #1 of 1 versions

Jango Player

Login - add to songbook

SHARE PAGE  



You need to log in to post comments