Guitar Tabs, Chords and Lyrics
Update 25:10. 13:00. Site is back up running again. Songbooks are recovered. Woring on getting search back up..


She  Sugarplum Fairy

 
 ----------------------------------------------------------------------------
 ----------------------------------------------------------------------------

Tuning: Standart
Intro: D5 (palm mute)
Ref 2:
[D]Uh uh uh uh [A]uh uh
[Em7]Uh uh uh uh [G]uh uh
Verse 1:
[D]She said be bol[A]d, [Bm]you can manage what [F#m]you‚??ve been told t[Em]o do
So it‚??[A]s true tha[Gm]t I can keep it all and spend it too
[D]I‚??ll lend you a[A] hand[Bm], you raise your voice an[F#m]d make a stand an[Em]d I saw you
[A]Cry, [Gm]I know they‚??ll die but so will you and I
Ref 1:
[D]She said I [A]know that the [Em7]fire in my h[G]eart would show
[D]She said I [A]know that my f[Em7]ire for this [G]world will grow
-Ref 2-
-Verse 2-
-Ref 1-
-Ref 2-
Bridge:
 
 e|-----------------------------------------------|
 B|-------7----------7----------7----------7------|
 G|-----7----7-----7----7-----7----7-----7----7---|
 D|--9----------8----------7----------6-----------|
 A|-----------------------------------------------|
 E|-----------------------------------------------|
 e|-----------------------------------------------|
 B|-------7----------7----------7-----7--7--7--7--|
 G|-----7----7-----7----7-----7----7--7--7--7--7--|
 D|--9----------8----------7----------6--6--6--6--|
 A|-----------------------------------------------|
 E|-----------------------------------------------|
 e|------------------------------------------------|
 B|--9----9-----9----9-----9----9-----9----9-------|
 G|--9----9-----9----9-----9----9-----9----9-------|
 D|--11---11----10---10----9----9-----8----8-------|
 A|------------------------------------------------|
 E|------------------------------------------------|
 e|------------------------------------------|
 B|--9----9-----9----9-----9999999999999999--|
 G|--9----9-----9----9-----9999999999999999--|
 D|--11---11----10---10----9999999988888888--|
 A|------------------------------------------|
 E|------------------------------------------|

Ref 1: (x2)
[E]She said I [B]know that the [F#m7]fire in my [A]heart would show
[E]She said I [B]know that my f[F#m7]ire for this [A]world will grow
Ref 2:
[E]Uh uh uh uh [B]uh uh
[F#m7]Uh uh uh uh [A]uh uh
| / slide up
| \ slide down
| h hammer-on
| p pull-off
| ~ vibrato
| + harmonic
| x Mute note
============================================================================

Important: The song above is NOT stored on the Chordie server. The original song is hosted at www.azchords.com. Chordie works as a search engine and provides on-the-fly formatting. Chordie does not index songs against artists'/composers' will. To remove this song please click here.

Text color:
Chord color:
Chord grids: 
Font size:    
Page size: 

A B Bm D E Em Em7 F#m F#m7 G Gm
Rate #1 of 3 versions

Jango Player

Login - add to songbook

SHARE PAGE  




You need to log in to post comments