Guitar Tabs, Chords and Lyrics
Server problems seems to be fixed. Chordie has been experiencing problems with songs disappearing. These issues now seems to be fixed, but still verifying the fix. If you find anything strange, please email admin@chordie.com.


Honor Among Thieves  The Suicide Machines

Note: The letter appearing above a chord is the name of the chord if you donā??t recognize it. Also, an x next to a number means to play that string muted, but with your finger on the appropriate fret. It creates a kind of harmonic effect. If the x is not directly next to the number, it just means mute the strings.
(Intro)
[D] [G] [D]  
 
 E---2---------2--2--2---2----------------------------------
 B---3---------2--2--2---3----------------------------------
 G---2---------0--0--0---2----------------------------------
 D---0---------0--0--0---0----------------------------------
 A-------------2--2--2--------------------------------------
 E-------------3--3--3--------------------------------------

Play 4 times, but on the 4th time, replace the final D chord with this:
 
 E----------------------------------------------------------
 B----------------------------------------------------------
 G----------------------------------------------------------
 D--2-------------------------------------------------------
 A--0-------------------------------------------------------
 E----------------------------------------------------------

(Bass Solo transcribed onto guitar)
 
 E----------------------------------------------------------
 B----------------------------------------------------------
 G----------------------------------------------------------
 D----------------------------------------------------------
 A--5555---------------------5555--------------5------------
 E---------5555-3333-5555-------5555-3333-------------------

As the bass plays the final note, play this:
 
 E----------------------------------------------------------
 B----------------------------------------------------------
 G----------------------------------------------------------
 D---7------------------------------------------------------
 A---5------------------------------------------------------
 E----------------------------------------------------------

(Verse)
 
 E-------------------------------------------------------------------------
 B-------------------------------------------------------------------------
 G-------------------------------------------------------------------------
 D--7---x---------------------------------7---x-----------------------7-7--
 A--5---x---7-7---x---5-5---x---7-7--x-x--5---x---7-7---x---5-5---x---5-5--
 E----------5-5---x---3-3---x---5-5--x-x----------5-5---x---3-3---x--------

Repeat twice
(Prechorus)
 
 E----------------------------------------------------------
 B----------------------------------------------------------
 G----------------------------------------------------------
 D----------------------------------------------------------
 A--7-7-7-7-7-7-7-7-7-7-7-7-7-7-7-7-------------------------
 E--5-5-5-5-5-5-5-5-5-5-5-5-5-5-5-5-------------------------

(Chorus)
 
 E-------------------------------------------------------------------------------
 B-------------------------------------------------------------------------------
 G-------------------------------------------------------------------------------
 D--7-7-7-7-7-7-7-7--------------------------------------------------------------
 A--5-5-5-5-5-5-5-5--5-5-5---7-7-7-7-7-7-7-7-7-7-7-7-7-7-7-7---9-9-9--7-7--9-9-9-
 E-------------------3-3-3---5-5-5-5-5-5-5-5-5-5-5-5-5-5-5-5---7-7-7--5-5--7-7-7-
 E----------------------------------------------------------
 B----------------------------------------------------------
 G----------------------------------------------------------
 D----------------------------------------------------------
 A--4-4-4--5-5-5-5-5-5-5-5-5-5-5-5-5-5-5-5------------------
 E--2-2-2--3-3-3-3-3-3-3-3-3-3-3-3-3-3-3-3------------------

Repeat chorus twice
After chorus, play this then go right back into the verse:
Note: mute the strings with your fingers near the bottom of these frets to get the proper sound.
 
 E----------------------------------------------------------
 B----------------------------------------------------------
 G----------------------------------------------------------
 D----------------------------------------------------------
 A--5x-5x-5x-5x-5x-5x-5x-5x---------------------------------
 E--3x-3x-3x-3x-3x-3x-3x-3x---------------------------------

(Iā??ve got your backā?¦)
Same as intro, but play 6 times. On the sixth time, replace the final D chord with:
 
 E-----------------------------------------------------------
 B-----------------------------------------------------------
 G-----------------------------------------------------------
 D-----------------------------------------------------------
 A--7-7-7-7-7-7-7-7-7-7-7-7-7-7-7-7--------------------------
 E--5-5-5-5-5-5-5-5-5-5-5-5-5-5-5-5--------------------------

(Outro)
After playing the chorus twice and doing the harmonic type effect, play this chord twice. Just listen to the song for the timing.
 
 E-----------------------------------------------------------
 B-----------------------------------------------------------
 G-----------------------------------------------------------
 D--7--------------------------------------------------------
 A--5--------------------------------------------------------
 E-----------------------------------------------------------


Important: The song above is NOT stored on the Chordie server. The original song is hosted at www.azchords.com. Chordie works as a search engine and provides on-the-fly formatting. Chordie does not index songs against artists'/composers' will. To remove this song please click here.

Text color:
Chord color:
Chord grids: 
Font size:    
Page size: 

D G
Rate #1 of 1 versions

Login - add to songbook

SHARE PAGE  



You need to log in to post comments