Guitar Tabs, Chords and Lyrics
Server problems seems to be fixed. Chordie has been experiencing problems with songs disappearing. These issues now seems to be fixed, but still verifying the fix. If you find anything strange, please email admin@chordie.com.


Someone  The Suicide Machines

Running Time: 1 minute 34 seconds
Start off riff
 
 e------------------------------------------------
 B------------------------------------------------
 G------------------------------------------------
 D-------------22---------------------------------
 A--3332-5-------55-3332-5------------------------
 E------3--1155---------3--111100-55-33-----------

(Ska 1-clean)
[C] [C] [B] [C] [F] [C] [C] [B] [C] [Bb] [A]  
 
 e---3-3-2-3-1-----3-3-2-3-1--0--------------------
 B---5-5-4-5-1-----5-5-4-5-3--2--------------------
 G---5-5-4-5-2-----5-5-4-5-3--2--------------------
 D---5-5-4-5-3-----5-5-4-5-3--2--------------------
 A---3-3-2-3-3-----3-3-2-3-1--0--------------------
 E---X-X-X-X-1-----X-X-X-X-X--x--------------------

^ that is the little ska chord progression after the begining before the
singing (play Up stroke with mutes after hitting the desired notes,
and try to only play the last 3 strings.)
(Punk-distortion)
[C] [A] [Bb] [F]  
 
 e--3--5-6--1--------------------------------------
 B--5--5-6--1--------------------------------------
 G--5--6-7--2--------------------------------------
 D--5--7-8--3--------------------------------------
 A--3--7-8--3--------------------------------------
 E--X--5-6--1--------------------------------------

^ theres the punk chord progression, its just this for the verses basicly.
listen to the song for correct timing.
(Chorus)
[C] [C] [B] [C] [F]  
 
 e--3-3-2-3-1---------------------------------
 B--5-5-4-5-1---------------------------------
 G--5-5-4-5-2---------------------------------
 D--5-5-4-5-3---------------------------------
 A--3-3-2-3-3---------------------------------
 E--X-X-X-X-1---------------------------------

for the CHORUS its just the CCBCF (as shown above) in rhythmic muting
(ska sound)
(Pre Verse)
 
 e--3-1-3-1-0--1-0-0-3-----------------------
 B--5-1-5-3-2--3-2-3-5-----------------------
 G--5-2-5-3-2--3-2-3-5-----------------------
 D--5-3-5-3-2--3-2-3-5-----------------------
 A--3-3-3-1-0--1-0-1-3-----------------------
 E--X-1-X-X-X--X-X-X-X-----------------------

after the pre verse he plays half of the begining riff...(as a solo)
(Solo)
 
 e------------------
 B------------------
 G------------------
 D------------22----
 A--3332-5------55--
 E------3-1155------

...then it just goes back into the punk part again....and some ska after that
the order of the song is:
Riff (played twice)
ska 1 (played once)
punk (progression played twice)
chorus (progression played four times)
punk (twice)
chorus (four times)
pre verse (play through once)
solo (played once)
punk (twice)
chorus (four times)

Important: The song above is NOT stored on the Chordie server. The original song is hosted at www.azchords.com. Chordie works as a search engine and provides on-the-fly formatting. Chordie does not index songs against artists'/composers' will. To remove this song please click here.

Text color:
Chord color:
Chord grids: 
Font size:    
Page size: 

A B Bb C F
Rate #1 of 1 versions

Jango Player

Login - add to songbook

SHARE PAGE  



You need to log in to post comments