Guitar Tabs, Chords and Lyrics
Major upgrade!! After one year development the new version of Chordie is now online! Please give feedback.


Hooch  Sum 41

Sum 41
Does This Look Infected
Key: G then D
Tuning: Drop D
Chords used: Drop D only
Em - 222xxx
D - 000xxx
G - 555xxx
D/F# - 454xxx
Bm - 999xxx
C - x355xx
A - 777xxx
Chords used: Standard EADGBe
Em - 022000
D - xx0232
G - 320033
D/F# - 2x023x
Bm - x24432
C - x32010
A - x02220
 
 Intro: Em--D-Em--D-Em--D-Em--G--D-- x4

Verse 1:
It's your[Em] last chance to
find yourself in consequence
[G] It's so hard to [D]find
a simple reason
[Em] Maybe I'll find myself
with evidence
[G] Hate breeds
with [D]nothing
to believe in
[Em] Another day another
day in paradise
[G] If you only knew
[D]wouldn't it be nice
[Em] Get away get
away get away
I'm a[G]bout to deto[D]nate
Chorus:
Everything to [Em]prove[D]
Nothing to [Em]lose[D]
Just when [G]everything has
[D/F#]fallen to the [Em]ground[D]
Gonna knock it [Em]down[D]
Just be[C]lieve me when I
[D]tell you it's alright
Verse 2:
[Em] This time we're on
our way to tragedy
[G] Forever bored and [D]our
side from the in crowd
[Em] I've come to grip
confronting my reality
[G] Numbstruck it's [D]me
against the world now
[Em] For all you know for all
you know it's not for real
[G] Spare me the ob[D]session
that you deal
[Em] Get away get
away get away
I'm a[G]bout to deto[D]nate
(Repeat Chorus twice)
Bridge:
[Em] I should've know
right from the start
That you'd [G]take this
trust and rip [D]me apart
Em pick slide up
Could be a change of heart
pick slide up:
 
 e|--------------------------------------------
 B|--------------------------------------------
 G|--------------------------------------------
 D|--------------------------------------------
 A|-5-6-7-8-9-10-11-12-13-14-15-16-17-18-19-20-
 E|-5-6-7-8-9-10-11-12-13-14-15-16-17-18-19-20-

Guitar Solo:
 
 Deryck: D/F#-G-A-D--Bm--G-- x4, D/F#-G-A-D(hold)

Dave:
S S S S T T T S S S S S S S S S S T
 
 --19---L-17-L-15-17-15---------------------------|
 -----------------------15-L-L-L-L-L-L--L---------|
 --------------------------------------16-17-16-L-|
 -------------------------------------------------|
 -------------------------------------------------|
 -------------------------------------------------|

S S S S T T S S E E E E S
 
 -----------------------------------------|
 --17--L-15-L-----------------------------|
 -------------16-17-16--------------------|
 ----------------------19--L--17--L--L--L-|
 -----------------------------------------|
 -----------------------------------------|

S S S S T T S E E E E S S
 
 ----------------------------------------|
 ----------------------------------------|
 --14-L-16-L-17-16-14--------------------|
 --16-L-17-L-19-17-16-16--L--L--L--------|
 ---------------------17--L--L--L--17-19-|
 ----------------------------------------|

S S S S S S S S S S S S S S S S
 
 ------------------------------------------------|
 ------------------------------------------------|
 ------------------------------------------------|
 --17-17-------17-17-------17-19-21-19-17-L------|
 --------17-19-------17-19------------------19-L-|
 ------------------------------------------------|

S S S S S S S S S S S S S S S S
 
 ------------------------------------------|
 ------------------------------------------|
 ------------------------------------------|
 ------------------------------------------|
 --19-17-----------------------------------|
 --------20-19-17--L-19--L-L-L-L-L-L-L-L-L-|

S S S S S S S S S S S S S S S S
 
 --------------------------------------------------|
 --------------------------------------------------|
 --------------------------------------------------|
 -----------------------17----17-19-17-19-20-19-17-|
 -----------17----17-19----19----------------------|
 --17-19-21----21----------------------------------|

T T T T T T T T T T T T T E S S S S S S T T T
 
 -----------------------------------------19b--L-L-L-L-L-L-14-14-15-|
 --21-20-19-18-17-16-15-16-17-18-19-20-21---------------------------|
 -------------------------------------------------------------------|
 -------------------------------------------------------------------|
 -------------------------------------------------------------------|
 -------------------------------------------------------------------|

T T T T T T T T T T T T T T T T T T T T T T T T T T
 
 --15-14-14-17-17-14-14-15-15-14-14-17-17-14-14-15-15-14-14-17-17-14-14-15-15-14-
 --------------------------------------------------------------------------------
 --------------------------------------------------------------------------------
 --------------------------------------------------------------------------------
 --------------------------------------------------------------------------------
 --------------------------------------------------------------------------------

S S S S S S S S S S S S S S S S
 
 --------------------------------------
 --------------------------------------
 --16-L-14-L-12-L-11-L-L-L-L-L-L-L-L-L-
 --------------------------------------
 --14-L-12-L-10-L--9-L-L-L-L-L-L-L-L-L-
 --------------------------------------

Interlude: beat switches from 4/4 to 3/4
[G--D/F#-D]  
Outro:
[Bm] I'll fall into
[D]you[G] but don't
believe that
this [D/F#]is [D]real
(Repeat x4)
Dave:
 
 e|---------9--------------9------
 B|-10---10---10---10---10---10---
 G|----7---------7----7---------7- x4
 D|-------------------------------
 A|-------------------------------
 D|-------------------------------


Important: The song above is NOT stored on the Chordie server. The original song is hosted at www.azchords.com. Chordie works as a search engine and provides on-the-fly formatting. Chordie does not index songs against artists'/composers' will. To remove this song please click here.

Text color:
Chord color:
Chord grids: 
Font size:    
Page size: 

Bm C D D/F# Em G
Rate #1 of 2 versions

Jango Player

Login - add to songbook

SHARE PAGE  




You need to log in to post comments