Guitar Tabs, Chords and Lyrics
Update 25:10. 13:00. Site is back up running again. Songbooks are recovered. Woring on getting search back up..


Ocean Breathes Salty  Sun Kil Moon

not perfect but it is pretty close I think
Open D Tuning (DADF#AD) (tune down a further half step to play with the album)
Intro
 
 |--0-----------0-|---------------|-------------0-|--------------0--|
 |-------0--------|--------4------|-----0---------|------0----------|
 |----------0-----|----3------3---|---------0-----|--0------0-------|
 |-----2------2---|------2------2-|---5-------0---|----0-------0----|
 |----------------|--0------0-----|---------------|-----------------|
 |--0-----0-------|---------------|-.5---5--------|-0-----0---------|
 |---------------0-|---------------|--------------|-4-------0-------|
 |-------4---------|--------2--0---|------0-------|---------------0-|
 |---3-------3-----|----3----------|----------0---|-----0------0----|
 |-----2----- -2---|------2--------|---5--------5-|-------5------5--|
 |-0-------0-------|---0-----0---0-|--------------|-----------------|
 |-----------------|---------------|-5-----5------|--5-------5------|

Verse
[A] [B]  
 
 |----------------0-|--------------0-|--------------0-|--------------0-|
 |-------0----------|-------4--------|-------0--------|-------0--------|
 |---0-------0------|---3------3-----|---0-------0----|---0------0-----|
 |-----0--------0---|-----2------2---|-----5-------5--|-----0-------0--|
 |------------------|-0------0-------|----------------|----------------|
 |-0-------0--------|----------------|-5-------5------|--0-----0-------|
 |---------------0-|---------------|--------------|-4-------0-------|
 |-------4---------|--------2--0---|------0-------|---------------0-|
 |---3-------3-----|----3----------|----------0---|-----0------0----|
 |-----2----- -2---|------2--------|---5--------5-|-------5------5--|
 |-0-------0-------|---0-----0---0-|--------------|-----------------|
 |-----------------|---------------|-5-----5------|--5-------5------|

When you get to ‚??Well that is that and this is this‚?? play A,B,C,D then the second line
the verse
[C] [D]  
 
 |---------------0-|------------------|
 |-------0---------|---------0--------|
 |---1-------1-----|----0---------0---|
 |-----0-----------|------5---------5-|
 |-----------------|------------------|
 |-2-------2---4---|-5--------5-------|

Tell me what you want, tell you what you get
 
 |---------------0-|------------|----------------0-|-----------|
 |-------0---------|------------|---------0--------|-----------|
 |---3-------3-----|------------|----0-------0-----|-----------|
 |-----2-------2---|--REPEAT----|------5-------5---|--REPEAT---|
 |-0-------0-------|------------|------------------|-----------|
 |-----------------|------------|--5--------5------|-----------|

You missed when Time and Life shook hands - and said goodbye
 
 |----------------0-|------------|----------------0-|-----------|
 |-------0----------|------------|--------0---------|-----------|
 |---3-------3------|------------|----1-------1-----|-----------|
 |-----0--------0---|--REPEAT----|------0-------0---|--REPEAT---|
 |-4-------4--------|------------|--2-------2-------|-----------|
 |------------------|------------|------------------|-----------|

When the earth Folded on itself and said good luck
 
 |--------------0-|-------------|----------------0-|-----------|
 |-------0--------|-------------|--------0---------|-----------|
 |---3------3-----|-------------|---0-------0------|-----------|
 |-----4------4---|--REPEAT-----|------5-------5---|--REPEAT---|
 |-0------0-------|-------------|------------------|-----------|
 |----------------|-------------|-5-------5--------|-----------|

I hope Heaven and hell are really there
 
 |--------------0-|-------------|---------------0--|-----------|
 |-------0--------|-------------|--------0---------|-----------|
 |---3------3-----|-------------|---0-------0------|-----------|
 |-----4------4---|--REPEAT-----|-------------5----|--Repeat---|
 |----------------|-------------|-----0------------|-----------|
 |-4------4-------|-------------|-5-------5--------|-----------|

I wouldn't hold my breath
 
 |---------------0-|----------------0--|--------------0-|--------------0-|
 |-------0---------|--------0----------|-------0--------|-------0--------|
 |---3-------3-----|----3-------3------|---0------0-----|---0------0-----| x4
 |-----4-------4---|------4-------4----|-----5------5---|-----5------5---|
 |-0------0--------|--0-------0--------|----------------|----------------|
 |-----------------|-------------------|-5-------5------|-5-------5------|

You wasted life, why wouldn‚??t you waste death
Your body may be gone, I'm gonna carry you in.
In my head, in my heart, in my soul.
And maybe we'll get lucky and we'll both live again.
Well I don't know. I don't know. I don't think so.
Well that is that and this is this.
You tell me what you want and I'll tell you what you get.
You get away from me.
Collected my belongings and I left the jail.
Well thanks for the time, I had to think a spell.
I had to think awhile.
And the ocean breathes salty, won't you carry it in?
In your head, in your mouth, in your soul.
And maybe we'll get lucky and we'll both grow old.
Well I don't know. I don't know. I hope so.
Well that is that and this is this.
Will you tell me what you saw and I'll tell you what you missed, when the ocean met the sky.
You missed when time and life shook hands and said goodbye.
When the earth folded on itself.
And said "Good luck, I hope heaven and hell are really there, I wouldn't hold my breath."
Well that is that and this is this.
Will you tell me what you saw and I'll tell you what you missed, when the ocean met the sky.
You missed when time and life shook hands and said goodbye.
When the earth folded on itself.
And said "Good luck, I hope heaven and hell are really there, I wouldn't hold my breath."
You wasted life, why wouldn't you waste death?
You wasted life, why wouldn't you waste death?
You wasted life, why wouldn't you waste death?
You wasted life, why wouldn't you waste death?
The ocean breathes salty, won't you carry it in?
In your head, in your mouth, in your soul.
And the more we move ahead the more we're stuck in rewind.
Well I don't mind. I don't mind. How could I mind?
Well that is that and this is this.
You tell me what you want and I'll tell you what you get.
You get away from me.
Well that is that and this is this.
Will you tell me what you saw and I'll tell you what you missed, when the ocean met the sky.
You missed when time and life shook hands and said goodbye.
When the earth folded on itself.
And said "Good luck, I hope heaven and hell are really there, I wouldn't hold my breath."
You wasted life, why wouldn't you waste death?
You wasted life, why wouldn't you waste death?
You wasted life, why wouldn't you waste death?
You wasted life, why wouldn't you waste death?

Important: The song above is NOT stored on the Chordie server. The original song is hosted at www.azchords.com. Chordie works as a search engine and provides on-the-fly formatting. Chordie does not index songs against artists'/composers' will. To remove this song please click here.

Text color:
Chord color:
Chord grids: 
Font size:    
Page size: 

A B C D
Rate #1 of 2 versions

Login - add to songbook

SHARE PAGE  



You need to log in to post comments