Guitar Tabs, Chords and Lyrics
Update 25:10. 13:00. Site is back up running again. Songbooks are recovered. Woring on getting search back up..


Hollywood Hills  Sunrise Avenue

Intro
 
 e|-12--12--12-----10--10---12--12--12-----13--13---|
 B|---13--13--13-13--13--13---13--13--13-13--13--13-|
 G|-------------------------------------------------|
 D|-------------------------------------------------|
 A|-------------------------------------------------|
 E|-------------------------------------------------|

Now this is not the time or the place for broken hearted
 
 e|---10--10-|
 B|-12--12---|
 G|----------|
 D|----------|
 A|----------|
 E|----------|

Cause this is the end of the rainbow
 
 e|-10----8-8-|
 B|---12-8-8--|
 G|-----------|
 D|-----------|
 A|-----------|
 E|-----------|

Where no one can be too said
 
 e|---| e|---------12-12-| e|---------|
 B|-6-| B|-12-13-13------| B|-5-6-6-5-|
 G|---| G|---------------| G|---------|
 D|---| D|---------------| D|---------|
 A|---| A|---------------| A|---------|
 E|---| E|---------------| E|---------|

No, I donā??t wanna leave but I must keep moving ahead
 
 e|---12--12-| e|---10--10-|
 B|-13--13---| B|-12--12---|
 G|----------| G|----------|
 D|----------| D|----------|
 A|----------| A|----------|
 E|----------| E|----------|

Behind the great oceans waves
 
 e|-13-13-13-13-12-12-12-12-|
 B|-------------------------|
 G|-------------------------|
 D|-------------------------|
 A|-------------------------|
 E|-------------------------|

[C]Bye, bye Hollywood Hills Iā??m go[G]nna
miss you wherever I go Iā??m go[Am]nna
come back to[G] walk these streets agai[F]n
Bye, bye Hollywood Hills forever
 
 C G Am G or e|-12--12--12-----10--10---12--12--12-----13--13---|
 B|---13--13--13-13--13--13---13--13--13-13--13--13-|
 G|-------------------------------------------------|
 D|-------------------------------------------------|
 A|-------------------------------------------------|
 E|-------------------------------------------------|

Thank you for the morning walks on the sweet sunset
And for the hot night moments
For the fantasy in my bed[Am]
I take a part of you with me now and you wonā??t get it back
And a part of me will stay here
You can keep it forever, dear...
 
 e|-13-12-13-12-13-12-13-12-|
 B|-------------------------|
 G|-------------------------|
 D|-------------------------|
 A|-------------------------|
 E|-------------------------|

[F]Woowo[G]o
[C]Bye, bye Hollywood Hills Iā??m go[G]nna
miss you wherever I go Iā??m go[Am]nna
come back to[G] walk this streets again[F]
Remember that we had fun together
[C]Bye, bye Rodeo girls Iā??m go[G]nna
Love you wherever I go Iā??m g[Am]onna
Come back s[G]o we can play together[F]
Bye, bye Hollywood Hills forever
[C]Long distance love doesnā??[G]t work
All the miles in between getting l[Am]onely
No, I donā??t wanna go
I donā??t wanna go
Bye, bye Hollywood Hills Iā??m gonna
miss you wherever I go Iā??m gonna
come back to walk these streets again
Bye, bye...
[C]Bye, bye Hollywood Hills Iā??m go[G]nna
miss you wherever I go Iā??m go[Am]nna
come back to[G] walk this streets again[F]
Remember that we had fun together
[C]Bye, bye Rodeo girls Iā??m go[G]nna
Love you wherever I go Iā??m go[Am]nna
Come back s[G]o we can play together[F]
Bye, bye Hollywood Hills forever
C G Am or
 
 e|-12--12--12-----10--10---12--12--12-----13--13---|
 B|---13--13--13-13--13--13---13--13--13-13--13--13-|
 G|-------------------------------------------------|
 D|-------------------------------------------------|
 A|-------------------------------------------------|
 E|-------------------------------------------------|

Hollwood Hills [G]forever
[C]yeah
[G] [Am]  
Hollywood H[G]ills forever[C]

Important: The song above is NOT stored on the Chordie server. The original song is hosted at www.azchords.com. Chordie works as a search engine and provides on-the-fly formatting. Chordie does not index songs against artists'/composers' will. To remove this song please click here.

Text color:
Chord color:
Chord grids: 
Font size:    
Page size: 

Am C F G
Rate #5 of 10 versions

Login - add to songbook

SHARE PAGE  




You need to log in to post comments