Guitar Tabs, Chords and Lyrics
Update 25:10. 13:00. Site is back up running again. Songbooks are recovered. Woring on getting search back up..


Romeo  Sunrise Avenue

SUNRISE AVENUE: ROMEO
Capo on 1st fret!
INTRO: Em
[Em]Cold is the night I see you [C]go
[Em]Into the night to find your[C] Rome[D]o
[Am]It‚??s a pity finding someone
[Em]Won‚??t bring it all to you rig[C]ht no[D]w
[Em]Enter the slowly crying [C]game
[Em]Enter the fear it‚??s al[C]l take[D]n away
[Am]It‚??s a pity finding someone
[Em]Won‚??t be the way for you righ[C]t now
D*
Alone in the night you seek and wonder
*only one time
CHORUS:
[F]Shady name, shady [C]night
Hide the sunlight in your [F]eyes
Lonely life‚??s a cryi[Am]ng road[G]
[F]Shady name, shady [C]night
Hide the sunlight in your [F]eyes
Only for the hiding [Am]Rom[G]eo[F]
[Em]I‚??m not the one to make yo[C]u complete
[Em]I‚??m not the guy to help yo[C]u reach th[D]e dream
[Am]Such a pity lighting sunrise
[Em]Won‚??t come before your eyes rig[C]ht now
D*
All alone in the night you seek and wonder
*only one time
CHORUS and then ''Em''
SOLO:
 
 e|-------------------------------------------------|
 B|-------------------------------------------------|
 G|-------------------------2-4-2-------------------|
 D|---2---4-5-4-----2---2---------------------------| x2
 A|-2---2-------5-5---3---3-------------------------|
 E|-------------------------------------------------|
 e|-----------------------------------------------------------------------------------|
 B|-----------------------------------------------------------------------------3-1-1-|
 G|-----------2--------------------------------------------2--------------------------|
 D|---2---4-5---5-4-5-4---2--5-4---5-4---5-4---5-4---4-4-5---5-4--------2-2-2-4-------|
 A|-2---2---------------5--------5-----5-----5-----5--------------5-5-5---------------|
 E|-----------------------------------------------------------------------------------|

CHORUS x2 and then ''Em''

Important: The song above is NOT stored on the Chordie server. The original song is hosted at www.azchords.com. Chordie works as a search engine and provides on-the-fly formatting. Chordie does not index songs against artists'/composers' will. To remove this song please click here.

Text color:
Chord color:
Chord grids: 
Font size:    
Page size: 

Am C D Em F G
Rate #1 of 2 versions

Jango Player

Login - add to songbook

SHARE PAGE  




You need to log in to post comments