Guitar Tabs, Chords and Lyrics
Update 25:10. 13:00. Site is back up running again. Songbooks are recovered. Woring on getting search back up..


Broken Guidance  Superman Is Dead

Song : Broken Guidance
Artist : Superman Is Dead
Album : The Hangover Decade
@Solo.....
[C5] [G5] [F5] [C5] [G5] [F5]  
 
 e|--------------------------------------------------------8-8----8-8-8-8--|
 B|--8-8-8---8-8-8---8-8-8---8-8----8-10-8---8-10-8---8-10-----10----------|
 G|--------9-------9-------9------9--------9--------9----------------------|
 D|------------------------------------------------------------------------|
 A|------------------------------------------------------------------------|
 E|------------------------------------------------------------------------|

[C5] [G5] [F5] [C5] [B5] [A5] [G5]  
 
 e|---------------------8-8----8-8--8-13-12--12h13-12-10--10h12-10-8--8h10-8-7--|
 B|--8-8-8---8-8---8-10-----10--------------------------------------------------|
 G|--------9-----9--------------------------------------------------------------|
 D|-----------------------------------------------------------------------------|
 A|-----------------------------------------------------------------------------|
 E|-----------------------------------------------------------------------------|

[F5] [G5]  
 
 e|--7h8-7----12--13p12-10--|
 B|--------10---------------|
 G|-------------------------|
 D|-------------------------|
 A|-------------------------|
 E|-------------------------|

G5 A5 G5 A5 G5 A5 2X
/pick slide
[A5] [B5] [C5] [E5] [F5]  
[G5] [A5] [B5] [C5] [B5] [G5]  
[G5] [A5] [B5] [C5] [E5] [F5]  
[G5] [A5] [B5] [C5] [B5] [G5]  
[E5] [F5] [E5] [G5] [F5] [G5]  
[A5]So you‚??ve ever heard th[G5]e stories?.
There‚??s no reason of being blind
[A5]I begin to setup my [G5]worries
Should be left until you‚??re right
[C5]No one will [G5]catch you
[F5]Someone hunts your [C5]needs
[C5]Many good signs can ad[G5]vise you through the [F5]timeline
[A5]Greater range of explan[G5]ation
Too many lies that come to mind
[A5]Pretty doubt on destin[G5]ation
It makes sense to start the night
[C5]No one will s[G5]teer you
[F5]I‚??ll be on you[C5]r wings
[C5]Facing down to heal the [G5]broken guidance [F5]of us
And [G5]start a new light
**
There is[C5] way much to fo[G5]rget you
Than sta[A5]nding here to get to[E5] know you
All the[F5] great day‚??s gonna make it g[G5]o away
Flying[C5] down to set the[G5] guidance
It‚??s t[A5]oo late to leave t[E5]he wrong way
Many[F5] saviors know the silent[G5] word then make it[D5] lost
And hard to[E5] find ag[F5]ain[G5]
[B5/C5] [A5] [E5] [D5] [C5] [B5]  
[B5/C5] [A5] [E5] [D5] [A5] [G5]  
[B5/C5] [A5] [E5] [D5] [C5] [B5]  
[B5/C5] [A5] [E5] [D5] [A5] [G5]  
[F5] [E5] [A5]  
[G5] [A5] [B5]  
Solo

Important: The song above is NOT stored on the Chordie server. The original song is hosted at www.azchords.com. Chordie works as a search engine and provides on-the-fly formatting. Chordie does not index songs against artists'/composers' will. To remove this song please click here.

Text color:
Chord color:
Chord grids: 
Font size:    
Page size: 

A5 B5 C5 D5 E5 F5 G5
Rate #2 of 2 versions

Login - add to songbook

SHARE PAGE  



You need to log in to post comments